ISO-10303-21;
HEADER;
/* Generated by software containing ST-Developer
 * from STEP Tools, Inc. (www.steptools.com) 
 */

FILE_DESCRIPTION(
/* description */ (''),
/* implementation_level */ '2;1');

FILE_NAME(
/* name */ 'C:\\Users\\enginyeria\\Desktop\\racacoplguia1-2m.stp',
/* time_stamp */ '2021-05-25T11:51:21+02:00',
/* author */ ('enginyeria'),
/* organization */ (''),
/* preprocessor_version */ 'ST-DEVELOPER v17.2',
/* originating_system */ 'Autodesk Inventor 2019',
/* authorisation */ '');

FILE_SCHEMA (('CONFIG_CONTROL_DESIGN'));
ENDSEC;

DATA;
#10=MECHANICAL_DESIGN_GEOMETRIC_PRESENTATION_REPRESENTATION('',(#13),#681);
#11=SHAPE_REPRESENTATION_RELATIONSHIP('SRR','None',#688,#12);
#12=ADVANCED_BREP_SHAPE_REPRESENTATION('',(#14),#680);
#13=STYLED_ITEM('',(#697),#14);
#14=MANIFOLD_SOLID_BREP('S\X\F3lido1',#386);
#15=TOROIDAL_SURFACE('',#415,11.075,2.61045377707003);
#16=FACE_BOUND('',#64,.T.);
#17=FACE_BOUND('',#68,.T.);
#18=FACE_BOUND('',#71,.T.);
#19=FACE_BOUND('',#74,.T.);
#20=FACE_BOUND('',#79,.T.);
#21=FACE_BOUND('',#87,.T.);
#22=PLANE('',#412);
#23=PLANE('',#423);
#24=PLANE('',#427);
#25=PLANE('',#433);
#26=PLANE('',#439);
#27=PLANE('',#440);
#28=PLANE('',#441);
#29=PLANE('',#442);
#30=PLANE('',#443);
#31=PLANE('',#444);
#32=PLANE('',#445);
#33=PLANE('',#446);
#34=PLANE('',#447);
#35=PLANE('',#448);
#36=CYLINDRICAL_SURFACE('',#410,3.5);
#37=CYLINDRICAL_SURFACE('',#424,10.48);
#38=CYLINDRICAL_SURFACE('',#430,9.3);
#39=CYLINDRICAL_SURFACE('',#436,12.25);
#40=FACE_OUTER_BOUND('',#61,.T.);
#41=FACE_OUTER_BOUND('',#62,.T.);
#42=FACE_OUTER_BOUND('',#63,.T.);
#43=FACE_OUTER_BOUND('',#65,.T.);
#44=FACE_OUTER_BOUND('',#66,.T.);
#45=FACE_OUTER_BOUND('',#67,.T.);
#46=FACE_OUTER_BOUND('',#69,.T.);
#47=FACE_OUTER_BOUND('',#70,.T.);
#48=FACE_OUTER_BOUND('',#72,.T.);
#49=FACE_OUTER_BOUND('',#73,.T.);
#50=FACE_OUTER_BOUND('',#75,.T.);
#51=FACE_OUTER_BOUND('',#76,.T.);
#52=FACE_OUTER_BOUND('',#77,.T.);
#53=FACE_OUTER_BOUND('',#78,.T.);
#54=FACE_OUTER_BOUND('',#80,.T.);
#55=FACE_OUTER_BOUND('',#81,.T.);
#56=FACE_OUTER_BOUND('',#82,.T.);
#57=FACE_OUTER_BOUND('',#83,.T.);
#58=FACE_OUTER_BOUND('',#84,.T.);
#59=FACE_OUTER_BOUND('',#85,.T.);
#60=FACE_OUTER_BOUND('',#86,.T.);
#61=EDGE_LOOP('',(#259,#260,#261,#262,#263));
#62=EDGE_LOOP('',(#264,#265,#266,#267,#268));
#63=EDGE_LOOP('',(#269,#270));
#64=EDGE_LOOP('',(#271));
#65=EDGE_LOOP('',(#272,#273,#274,#275,#276,#277));
#66=EDGE_LOOP('',(#278,#279,#280,#281,#282));
#67=EDGE_LOOP('',(#283));
#68=EDGE_LOOP('',(#284));
#69=EDGE_LOOP('',(#285,#286,#287,#288,#289,#290));
#70=EDGE_LOOP('',(#291,#292));
#71=EDGE_LOOP('',(#293,#294));
#72=EDGE_LOOP('',(#295,#296,#297,#298,#299,#300));
#73=EDGE_LOOP('',(#301,#302));
#74=EDGE_LOOP('',(#303,#304));
#75=EDGE_LOOP('',(#305,#306,#307,#308,#309,#310));
#76=EDGE_LOOP('',(#311,#312,#313,#314));
#77=EDGE_LOOP('',(#315,#316,#317,#318));
#78=EDGE_LOOP('',(#319,#320,#321,#322,#323,#324,#325,#326));
#79=EDGE_LOOP('',(#327,#328));
#80=EDGE_LOOP('',(#329,#330,#331,#332));
#81=EDGE_LOOP('',(#333,#334,#335,#336));
#82=EDGE_LOOP('',(#337,#338,#339,#340));
#83=EDGE_LOOP('',(#341,#342,#343,#344));
#84=EDGE_LOOP('',(#345,#346,#347,#348));
#85=EDGE_LOOP('',(#349,#350,#351,#352));
#86=EDGE_LOOP('',(#353,#354,#355,#356,#357,#358,#359,#360));
#87=EDGE_LOOP('',(#361,#362));
#88=LINE('',#573,#118);
#89=LINE('',#579,#119);
#90=LINE('',#596,#120);
#91=LINE('',#605,#121);
#92=LINE('',#616,#122);
#93=LINE('',#627,#123);
#94=LINE('',#631,#124);
#95=LINE('',#633,#125);
#96=LINE('',#635,#126);
#97=LINE('',#636,#127);
#98=LINE('',#639,#128);
#99=LINE('',#641,#129);
#100=LINE('',#642,#130);
#101=LINE('',#645,#131);
#102=LINE('',#647,#132);
#103=LINE('',#649,#133);
#104=LINE('',#651,#134);
#105=LINE('',#653,#135);
#106=LINE('',#654,#136);
#107=LINE('',#658,#137);
#108=LINE('',#659,#138);
#109=LINE('',#660,#139);
#110=LINE('',#663,#140);
#111=LINE('',#664,#141);
#112=LINE('',#667,#142);
#113=LINE('',#668,#143);
#114=LINE('',#671,#144);
#115=LINE('',#672,#145);
#116=LINE('',#674,#146);
#117=LINE('',#676,#147);
#118=VECTOR('',#455,3.75);
#119=VECTOR('',#464,3.5);
#120=VECTOR('',#483,9.905);
#121=VECTOR('',#496,10.48);
#122=VECTOR('',#509,9.3);
#123=VECTOR('',#522,12.25);
#124=VECTOR('',#525,10.);
#125=VECTOR('',#526,10.);
#126=VECTOR('',#527,10.);
#127=VECTOR('',#528,10.);
#128=VECTOR('',#531,10.);
#129=VECTOR('',#532,10.);
#130=VECTOR('',#533,10.);
#131=VECTOR('',#536,10.);
#132=VECTOR('',#537,10.);
#133=VECTOR('',#538,10.);
#134=VECTOR('',#539,10.);
#135=VECTOR('',#540,10.);
#136=VECTOR('',#541,10.);
#137=VECTOR('',#544,10.);
#138=VECTOR('',#545,10.);
#139=VECTOR('',#546,10.);
#140=VECTOR('',#549,10.);
#141=VECTOR('',#550,10.);
#142=VECTOR('',#553,10.);
#143=VECTOR('',#554,10.);
#144=VECTOR('',#557,10.);
#145=VECTOR('',#558,10.);
#146=VECTOR('',#561,10.);
#147=VECTOR('',#564,10.);
#148=CIRCLE('',#407,3.5);
#149=CIRCLE('',#408,4.);
#150=CIRCLE('',#409,3.5);
#151=CIRCLE('',#411,3.5);
#152=CIRCLE('',#413,9.35);
#153=CIRCLE('',#414,9.35);
#154=CIRCLE('',#416,12.8);
#155=CIRCLE('',#417,12.8);
#156=CIRCLE('',#418,2.61045377707003);
#157=CIRCLE('',#420,10.48);
#158=CIRCLE('',#421,9.33);
#159=CIRCLE('',#422,10.48);
#160=CIRCLE('',#425,10.48);
#161=CIRCLE('',#426,10.48);
#162=CIRCLE('',#428,9.3);
#163=CIRCLE('',#429,9.3);
#164=CIRCLE('',#431,9.3);
#165=CIRCLE('',#432,9.3);
#166=CIRCLE('',#434,12.25);
#167=CIRCLE('',#435,12.25);
#168=CIRCLE('',#437,12.25);
#169=CIRCLE('',#438,12.25);
#170=VERTEX_POINT('',#569);
#171=VERTEX_POINT('',#570);
#172=VERTEX_POINT('',#572);
#173=VERTEX_POINT('',#577);
#174=VERTEX_POINT('',#581);
#175=VERTEX_POINT('',#582);
#176=VERTEX_POINT('',#586);
#177=VERTEX_POINT('',#587);
#178=VERTEX_POINT('',#592);
#179=VERTEX_POINT('',#593);
#180=VERTEX_POINT('',#595);
#181=VERTEX_POINT('',#601);
#182=VERTEX_POINT('',#602);
#183=VERTEX_POINT('',#607);
#184=VERTEX_POINT('',#608);
#185=VERTEX_POINT('',#612);
#186=VERTEX_POINT('',#613);
#187=VERTEX_POINT('',#618);
#188=VERTEX_POINT('',#619);
#189=VERTEX_POINT('',#623);
#190=VERTEX_POINT('',#624);
#191=VERTEX_POINT('',#629);
#192=VERTEX_POINT('',#630);
#193=VERTEX_POINT('',#632);
#194=VERTEX_POINT('',#634);
#195=VERTEX_POINT('',#638);
#196=VERTEX_POINT('',#640);
#197=VERTEX_POINT('',#644);
#198=VERTEX_POINT('',#646);
#199=VERTEX_POINT('',#648);
#200=VERTEX_POINT('',#650);
#201=VERTEX_POINT('',#652);
#202=VERTEX_POINT('',#656);
#203=VERTEX_POINT('',#657);
#204=VERTEX_POINT('',#662);
#205=VERTEX_POINT('',#666);
#206=VERTEX_POINT('',#670);
#207=EDGE_CURVE('',#170,#171,#148,.T.);
#208=EDGE_CURVE('',#171,#172,#88,.T.);
#209=EDGE_CURVE('',#172,#172,#149,.T.);
#210=EDGE_CURVE('',#171,#170,#150,.T.);
#211=EDGE_CURVE('',#173,#173,#151,.T.);
#212=EDGE_CURVE('',#173,#170,#89,.T.);
#213=EDGE_CURVE('',#174,#175,#152,.T.);
#214=EDGE_CURVE('',#175,#174,#153,.T.);
#215=EDGE_CURVE('',#176,#177,#154,.T.);
#216=EDGE_CURVE('',#177,#176,#155,.T.);
#217=EDGE_CURVE('',#177,#175,#156,.T.);
#218=EDGE_CURVE('',#178,#179,#157,.T.);
#219=EDGE_CURVE('',#179,#180,#90,.T.);
#220=EDGE_CURVE('',#180,#180,#158,.T.);
#221=EDGE_CURVE('',#179,#178,#159,.T.);
#222=EDGE_CURVE('',#181,#182,#160,.T.);
#223=EDGE_CURVE('',#182,#181,#161,.T.);
#224=EDGE_CURVE('',#182,#178,#91,.T.);
#225=EDGE_CURVE('',#183,#184,#162,.T.);
#226=EDGE_CURVE('',#184,#183,#163,.T.);
#227=EDGE_CURVE('',#185,#186,#164,.T.);
#228=EDGE_CURVE('',#186,#185,#165,.T.);
#229=EDGE_CURVE('',#186,#184,#92,.T.);
#230=EDGE_CURVE('',#187,#188,#166,.T.);
#231=EDGE_CURVE('',#188,#187,#167,.T.);
#232=EDGE_CURVE('',#189,#190,#168,.T.);
#233=EDGE_CURVE('',#190,#189,#169,.T.);
#234=EDGE_CURVE('',#190,#188,#93,.T.);
#235=EDGE_CURVE('',#191,#192,#94,.T.);
#236=EDGE_CURVE('',#192,#193,#95,.T.);
#237=EDGE_CURVE('',#193,#194,#96,.T.);
#238=EDGE_CURVE('',#194,#191,#97,.T.);
#239=EDGE_CURVE('',#195,#194,#98,.T.);
#240=EDGE_CURVE('',#196,#195,#99,.T.);
#241=EDGE_CURVE('',#191,#196,#100,.T.);
#242=EDGE_CURVE('',#193,#197,#101,.T.);
#243=EDGE_CURVE('',#198,#197,#102,.T.);
#244=EDGE_CURVE('',#198,#199,#103,.T.);
#245=EDGE_CURVE('',#200,#199,#104,.T.);
#246=EDGE_CURVE('',#200,#201,#105,.T.);
#247=EDGE_CURVE('',#195,#201,#106,.T.);
#248=EDGE_CURVE('',#202,#203,#107,.T.);
#249=EDGE_CURVE('',#203,#198,#108,.T.);
#250=EDGE_CURVE('',#197,#202,#109,.T.);
#251=EDGE_CURVE('',#204,#203,#110,.T.);
#252=EDGE_CURVE('',#199,#204,#111,.T.);
#253=EDGE_CURVE('',#204,#205,#112,.T.);
#254=EDGE_CURVE('',#205,#200,#113,.T.);
#255=EDGE_CURVE('',#206,#196,#114,.T.);
#256=EDGE_CURVE('',#201,#206,#115,.T.);
#257=EDGE_CURVE('',#202,#192,#116,.T.);
#258=EDGE_CURVE('',#206,#205,#117,.T.);
#259=ORIENTED_EDGE('',*,*,#207,.T.);
#260=ORIENTED_EDGE('',*,*,#208,.T.);
#261=ORIENTED_EDGE('',*,*,#209,.T.);
#262=ORIENTED_EDGE('',*,*,#208,.F.);
#263=ORIENTED_EDGE('',*,*,#210,.T.);
#264=ORIENTED_EDGE('',*,*,#211,.F.);
#265=ORIENTED_EDGE('',*,*,#212,.T.);
#266=ORIENTED_EDGE('',*,*,#210,.F.);
#267=ORIENTED_EDGE('',*,*,#207,.F.);
#268=ORIENTED_EDGE('',*,*,#212,.F.);
#269=ORIENTED_EDGE('',*,*,#213,.T.);
#270=ORIENTED_EDGE('',*,*,#214,.T.);
#271=ORIENTED_EDGE('',*,*,#209,.F.);
#272=ORIENTED_EDGE('',*,*,#215,.F.);
#273=ORIENTED_EDGE('',*,*,#216,.F.);
#274=ORIENTED_EDGE('',*,*,#217,.T.);
#275=ORIENTED_EDGE('',*,*,#213,.F.);
#276=ORIENTED_EDGE('',*,*,#214,.F.);
#277=ORIENTED_EDGE('',*,*,#217,.F.);
#278=ORIENTED_EDGE('',*,*,#218,.T.);
#279=ORIENTED_EDGE('',*,*,#219,.T.);
#280=ORIENTED_EDGE('',*,*,#220,.T.);
#281=ORIENTED_EDGE('',*,*,#219,.F.);
#282=ORIENTED_EDGE('',*,*,#221,.T.);
#283=ORIENTED_EDGE('',*,*,#220,.F.);
#284=ORIENTED_EDGE('',*,*,#211,.T.);
#285=ORIENTED_EDGE('',*,*,#222,.F.);
#286=ORIENTED_EDGE('',*,*,#223,.F.);
#287=ORIENTED_EDGE('',*,*,#224,.T.);
#288=ORIENTED_EDGE('',*,*,#221,.F.);
#289=ORIENTED_EDGE('',*,*,#218,.F.);
#290=ORIENTED_EDGE('',*,*,#224,.F.);
#291=ORIENTED_EDGE('',*,*,#222,.T.);
#292=ORIENTED_EDGE('',*,*,#223,.T.);
#293=ORIENTED_EDGE('',*,*,#225,.F.);
#294=ORIENTED_EDGE('',*,*,#226,.F.);
#295=ORIENTED_EDGE('',*,*,#227,.F.);
#296=ORIENTED_EDGE('',*,*,#228,.F.);
#297=ORIENTED_EDGE('',*,*,#229,.T.);
#298=ORIENTED_EDGE('',*,*,#226,.T.);
#299=ORIENTED_EDGE('',*,*,#225,.T.);
#300=ORIENTED_EDGE('',*,*,#229,.F.);
#301=ORIENTED_EDGE('',*,*,#230,.F.);
#302=ORIENTED_EDGE('',*,*,#231,.F.);
#303=ORIENTED_EDGE('',*,*,#227,.T.);
#304=ORIENTED_EDGE('',*,*,#228,.T.);
#305=ORIENTED_EDGE('',*,*,#232,.F.);
#306=ORIENTED_EDGE('',*,*,#233,.F.);
#307=ORIENTED_EDGE('',*,*,#234,.T.);
#308=ORIENTED_EDGE('',*,*,#231,.T.);
#309=ORIENTED_EDGE('',*,*,#230,.T.);
#310=ORIENTED_EDGE('',*,*,#234,.F.);
#311=ORIENTED_EDGE('',*,*,#235,.T.);
#312=ORIENTED_EDGE('',*,*,#236,.T.);
#313=ORIENTED_EDGE('',*,*,#237,.T.);
#314=ORIENTED_EDGE('',*,*,#238,.T.);
#315=ORIENTED_EDGE('',*,*,#238,.F.);
#316=ORIENTED_EDGE('',*,*,#239,.F.);
#317=ORIENTED_EDGE('',*,*,#240,.F.);
#318=ORIENTED_EDGE('',*,*,#241,.F.);
#319=ORIENTED_EDGE('',*,*,#237,.F.);
#320=ORIENTED_EDGE('',*,*,#242,.T.);
#321=ORIENTED_EDGE('',*,*,#243,.F.);
#322=ORIENTED_EDGE('',*,*,#244,.T.);
#323=ORIENTED_EDGE('',*,*,#245,.F.);
#324=ORIENTED_EDGE('',*,*,#246,.T.);
#325=ORIENTED_EDGE('',*,*,#247,.F.);
#326=ORIENTED_EDGE('',*,*,#239,.T.);
#327=ORIENTED_EDGE('',*,*,#232,.T.);
#328=ORIENTED_EDGE('',*,*,#233,.T.);
#329=ORIENTED_EDGE('',*,*,#248,.T.);
#330=ORIENTED_EDGE('',*,*,#249,.T.);
#331=ORIENTED_EDGE('',*,*,#243,.T.);
#332=ORIENTED_EDGE('',*,*,#250,.T.);
#333=ORIENTED_EDGE('',*,*,#249,.F.);
#334=ORIENTED_EDGE('',*,*,#251,.F.);
#335=ORIENTED_EDGE('',*,*,#252,.F.);
#336=ORIENTED_EDGE('',*,*,#244,.F.);
#337=ORIENTED_EDGE('',*,*,#253,.T.);
#338=ORIENTED_EDGE('',*,*,#254,.T.);
#339=ORIENTED_EDGE('',*,*,#245,.T.);
#340=ORIENTED_EDGE('',*,*,#252,.T.);
#341=ORIENTED_EDGE('',*,*,#255,.T.);
#342=ORIENTED_EDGE('',*,*,#240,.T.);
#343=ORIENTED_EDGE('',*,*,#247,.T.);
#344=ORIENTED_EDGE('',*,*,#256,.T.);
#345=ORIENTED_EDGE('',*,*,#236,.F.);
#346=ORIENTED_EDGE('',*,*,#257,.F.);
#347=ORIENTED_EDGE('',*,*,#250,.F.);
#348=ORIENTED_EDGE('',*,*,#242,.F.);
#349=ORIENTED_EDGE('',*,*,#254,.F.);
#350=ORIENTED_EDGE('',*,*,#258,.F.);
#351=ORIENTED_EDGE('',*,*,#256,.F.);
#352=ORIENTED_EDGE('',*,*,#246,.F.);
#353=ORIENTED_EDGE('',*,*,#235,.F.);
#354=ORIENTED_EDGE('',*,*,#241,.T.);
#355=ORIENTED_EDGE('',*,*,#255,.F.);
#356=ORIENTED_EDGE('',*,*,#258,.T.);
#357=ORIENTED_EDGE('',*,*,#253,.F.);
#358=ORIENTED_EDGE('',*,*,#251,.T.);
#359=ORIENTED_EDGE('',*,*,#248,.F.);
#360=ORIENTED_EDGE('',*,*,#257,.T.);
#361=ORIENTED_EDGE('',*,*,#215,.T.);
#362=ORIENTED_EDGE('',*,*,#216,.T.);
#363=CONICAL_SURFACE('',#406,3.75,0.78539816339745);
#364=CONICAL_SURFACE('',#419,9.905,0.78539816339745);
#365=ADVANCED_FACE('',(#40),#363,.F.);
#366=ADVANCED_FACE('',(#41),#36,.F.);
#367=ADVANCED_FACE('',(#42,#16),#22,.T.);
#368=ADVANCED_FACE('',(#43),#15,.T.);
#369=ADVANCED_FACE('',(#44),#364,.T.);
#370=ADVANCED_FACE('',(#45,#17),#23,.T.);
#371=ADVANCED_FACE('',(#46),#37,.T.);
#372=ADVANCED_FACE('',(#47,#18),#24,.T.);
#373=ADVANCED_FACE('',(#48),#38,.T.);
#374=ADVANCED_FACE('',(#49,#19),#25,.T.);
#375=ADVANCED_FACE('',(#50),#39,.T.);
#376=ADVANCED_FACE('',(#51),#26,.T.);
#377=ADVANCED_FACE('',(#52),#27,.T.);
#378=ADVANCED_FACE('',(#53,#20),#28,.F.);
#379=ADVANCED_FACE('',(#54),#29,.T.);
#380=ADVANCED_FACE('',(#55),#30,.T.);
#381=ADVANCED_FACE('',(#56),#31,.T.);
#382=ADVANCED_FACE('',(#57),#32,.T.);
#383=ADVANCED_FACE('',(#58),#33,.T.);
#384=ADVANCED_FACE('',(#59),#34,.T.);
#385=ADVANCED_FACE('',(#60,#21),#35,.T.);
#386=CLOSED_SHELL('',(#365,#366,#367,#368,#369,#370,#371,#372,#373,#374,
#375,#376,#377,#378,#379,#380,#381,#382,#383,#384,#385));
#387=DERIVED_UNIT_ELEMENT(#389,1.);
#388=DERIVED_UNIT_ELEMENT(#683,3.);
#389=(
MASS_UNIT()
NAMED_UNIT(*)
SI_UNIT($,.GRAM.)
);
#390=DERIVED_UNIT((#387,#388));
#391=MEASURE_REPRESENTATION_ITEM('density measure',
POSITIVE_RATIO_MEASURE(1.),#390);
#392=PROPERTY_DEFINITION_REPRESENTATION(#397,#394);
#393=PROPERTY_DEFINITION_REPRESENTATION(#398,#395);
#394=REPRESENTATION('material name',(#396),#680);
#395=REPRESENTATION('density',(#391),#680);
#396=DESCRIPTIVE_REPRESENTATION_ITEM('Generic','Generic');
#397=PROPERTY_DEFINITION('material property','material name',#690);
#398=PROPERTY_DEFINITION('material property','density of part',#690);
#399=DATE_TIME_ROLE('creation_date');
#400=CC_DESIGN_DATE_AND_TIME_ASSIGNMENT(#401,#399,(#690));
#401=DATE_AND_TIME(#402,#403);
#402=CALENDAR_DATE(2020,7,4);
#403=LOCAL_TIME(9,45,56.,#404);
#404=COORDINATED_UNIVERSAL_TIME_OFFSET(0,0,.BEHIND.);
#405=AXIS2_PLACEMENT_3D('placement',#567,#449,#450);
#406=AXIS2_PLACEMENT_3D('',#568,#451,#452);
#407=AXIS2_PLACEMENT_3D('',#571,#453,#454);
#408=AXIS2_PLACEMENT_3D('',#574,#456,#457);
#409=AXIS2_PLACEMENT_3D('',#575,#458,#459);
#410=AXIS2_PLACEMENT_3D('',#576,#460,#461);
#411=AXIS2_PLACEMENT_3D('',#578,#462,#463);
#412=AXIS2_PLACEMENT_3D('',#580,#465,#466);
#413=AXIS2_PLACEMENT_3D('',#583,#467,#468);
#414=AXIS2_PLACEMENT_3D('',#584,#469,#470);
#415=AXIS2_PLACEMENT_3D('',#585,#471,#472);
#416=AXIS2_PLACEMENT_3D('',#588,#473,#474);
#417=AXIS2_PLACEMENT_3D('',#589,#475,#476);
#418=AXIS2_PLACEMENT_3D('',#590,#477,#478);
#419=AXIS2_PLACEMENT_3D('',#591,#479,#480);
#420=AXIS2_PLACEMENT_3D('',#594,#481,#482);
#421=AXIS2_PLACEMENT_3D('',#597,#484,#485);
#422=AXIS2_PLACEMENT_3D('',#598,#486,#487);
#423=AXIS2_PLACEMENT_3D('',#599,#488,#489);
#424=AXIS2_PLACEMENT_3D('',#600,#490,#491);
#425=AXIS2_PLACEMENT_3D('',#603,#492,#493);
#426=AXIS2_PLACEMENT_3D('',#604,#494,#495);
#427=AXIS2_PLACEMENT_3D('',#606,#497,#498);
#428=AXIS2_PLACEMENT_3D('',#609,#499,#500);
#429=AXIS2_PLACEMENT_3D('',#610,#501,#502);
#430=AXIS2_PLACEMENT_3D('',#611,#503,#504);
#431=AXIS2_PLACEMENT_3D('',#614,#505,#506);
#432=AXIS2_PLACEMENT_3D('',#615,#507,#508);
#433=AXIS2_PLACEMENT_3D('',#617,#510,#511);
#434=AXIS2_PLACEMENT_3D('',#620,#512,#513);
#435=AXIS2_PLACEMENT_3D('',#621,#514,#515);
#436=AXIS2_PLACEMENT_3D('',#622,#516,#517);
#437=AXIS2_PLACEMENT_3D('',#625,#518,#519);
#438=AXIS2_PLACEMENT_3D('',#626,#520,#521);
#439=AXIS2_PLACEMENT_3D('',#628,#523,#524);
#440=AXIS2_PLACEMENT_3D('',#637,#529,#530);
#441=AXIS2_PLACEMENT_3D('',#643,#534,#535);
#442=AXIS2_PLACEMENT_3D('',#655,#542,#543);
#443=AXIS2_PLACEMENT_3D('',#661,#547,#548);
#444=AXIS2_PLACEMENT_3D('',#665,#551,#552);
#445=AXIS2_PLACEMENT_3D('',#669,#555,#556);
#446=AXIS2_PLACEMENT_3D('',#673,#559,#560);
#447=AXIS2_PLACEMENT_3D('',#675,#562,#563);
#448=AXIS2_PLACEMENT_3D('',#677,#565,#566);
#449=DIRECTION('axis',(0.,0.,1.));
#450=DIRECTION('refdir',(1.,0.,0.));
#451=DIRECTION('center_axis',(0.,0.,1.));
#452=DIRECTION('ref_axis',(-1.,0.,0.));
#453=DIRECTION('center_axis',(0.,0.,-1.));
#454=DIRECTION('ref_axis',(-1.,0.,0.));
#455=DIRECTION('',(0.707106781186549,8.65956056235495E-17,0.707106781186546));
#456=DIRECTION('center_axis',(0.,0.,1.));
#457=DIRECTION('ref_axis',(-1.,0.,0.));
#458=DIRECTION('center_axis',(0.,0.,-1.));
#459=DIRECTION('ref_axis',(-1.,0.,0.));
#460=DIRECTION('center_axis',(0.,0.,1.));
#461=DIRECTION('ref_axis',(1.,0.,0.));
#462=DIRECTION('center_axis',(-1.1686558153949E-16,0.,1.));
#463=DIRECTION('ref_axis',(1.,0.,1.1686558153949E-16));
#464=DIRECTION('',(0.,0.,1.));
#465=DIRECTION('center_axis',(0.,0.,1.));
#466=DIRECTION('ref_axis',(1.,0.,0.));
#467=DIRECTION('center_axis',(0.,0.,1.));
#468=DIRECTION('ref_axis',(-1.,0.,0.));
#469=DIRECTION('center_axis',(0.,0.,1.));
#470=DIRECTION('ref_axis',(-1.,0.,0.));
#471=DIRECTION('center_axis',(0.,0.,-1.));
#472=DIRECTION('ref_axis',(-1.,0.,0.));
#473=DIRECTION('center_axis',(0.,0.,-1.));
#474=DIRECTION('ref_axis',(-1.,0.,0.));
#475=DIRECTION('center_axis',(0.,0.,-1.));
#476=DIRECTION('ref_axis',(-1.,0.,0.));
#477=DIRECTION('center_axis',(-1.22464679914735E-16,-1.,0.));
#478=DIRECTION('ref_axis',(1.,-1.22464679914735E-16,0.));
#479=DIRECTION('center_axis',(-1.1686558153949E-16,0.,1.));
#480=DIRECTION('ref_axis',(-1.,0.,-1.1686558153949E-16));
#481=DIRECTION('center_axis',(1.1686558153949E-16,0.,-1.));
#482=DIRECTION('ref_axis',(-1.,0.,-1.1686558153949E-16));
#483=DIRECTION('',(-0.707106781186549,-8.65956056235495E-17,-0.707106781186546));
#484=DIRECTION('center_axis',(-1.1686558153949E-16,0.,1.));
#485=DIRECTION('ref_axis',(-1.,0.,-1.1686558153949E-16));
#486=DIRECTION('center_axis',(1.1686558153949E-16,0.,-1.));
#487=DIRECTION('ref_axis',(-1.,0.,-1.1686558153949E-16));
#488=DIRECTION('center_axis',(1.1686558153949E-16,0.,-1.));
#489=DIRECTION('ref_axis',(-1.,0.,-1.1686558153949E-16));
#490=DIRECTION('center_axis',(-1.1686558153949E-16,0.,1.));
#491=DIRECTION('ref_axis',(1.,0.,1.1686558153949E-16));
#492=DIRECTION('center_axis',(-1.1686558153949E-16,0.,1.));
#493=DIRECTION('ref_axis',(1.,0.,1.1686558153949E-16));
#494=DIRECTION('center_axis',(-1.1686558153949E-16,0.,1.));
#495=DIRECTION('ref_axis',(1.,0.,1.1686558153949E-16));
#496=DIRECTION('',(1.1686558153949E-16,0.,-1.));
#497=DIRECTION('center_axis',(-1.1686558153949E-16,0.,1.));
#498=DIRECTION('ref_axis',(1.,0.,1.1686558153949E-16));
#499=DIRECTION('center_axis',(-1.1686558153949E-16,0.,1.));
#500=DIRECTION('ref_axis',(1.,0.,1.1686558153949E-16));
#501=DIRECTION('center_axis',(-1.1686558153949E-16,0.,1.));
#502=DIRECTION('ref_axis',(1.,0.,1.1686558153949E-16));
#503=DIRECTION('center_axis',(-1.1686558153949E-16,0.,1.));
#504=DIRECTION('ref_axis',(1.,0.,1.1686558153949E-16));
#505=DIRECTION('center_axis',(-1.1686558153949E-16,0.,1.));
#506=DIRECTION('ref_axis',(1.,0.,1.1686558153949E-16));
#507=DIRECTION('center_axis',(-1.1686558153949E-16,0.,1.));
#508=DIRECTION('ref_axis',(1.,0.,1.1686558153949E-16));
#509=DIRECTION('',(1.1686558153949E-16,0.,-1.));
#510=DIRECTION('center_axis',(1.1686558153949E-16,0.,-1.));
#511=DIRECTION('ref_axis',(-1.,0.,-1.1686558153949E-16));
#512=DIRECTION('center_axis',(-1.1686558153949E-16,0.,1.));
#513=DIRECTION('ref_axis',(1.,0.,1.1686558153949E-16));
#514=DIRECTION('center_axis',(-1.1686558153949E-16,0.,1.));
#515=DIRECTION('ref_axis',(1.,0.,1.1686558153949E-16));
#516=DIRECTION('center_axis',(-1.1686558153949E-16,0.,1.));
#517=DIRECTION('ref_axis',(1.,0.,1.1686558153949E-16));
#518=DIRECTION('center_axis',(0.,0.,1.));
#519=DIRECTION('ref_axis',(1.,0.,0.));
#520=DIRECTION('center_axis',(0.,0.,1.));
#521=DIRECTION('ref_axis',(1.,0.,0.));
#522=DIRECTION('',(1.1686558153949E-16,0.,-1.));
#523=DIRECTION('center_axis',(0.707106781186548,0.707106781186548,0.));
#524=DIRECTION('ref_axis',(0.,0.,-1.));
#525=DIRECTION('',(0.707106781186547,-0.707106781186547,0.));
#526=DIRECTION('',(0.,0.,-1.));
#527=DIRECTION('',(-0.707106781186547,0.707106781186547,0.));
#528=DIRECTION('',(0.,0.,1.));
#529=DIRECTION('center_axis',(0.,1.,0.));
#530=DIRECTION('ref_axis',(-1.,0.,0.));
#531=DIRECTION('',(1.,0.,0.));
#532=DIRECTION('',(0.,0.,-1.));
#533=DIRECTION('',(-1.,0.,0.));
#534=DIRECTION('center_axis',(0.,0.,1.));
#535=DIRECTION('ref_axis',(1.,0.,0.));
#536=DIRECTION('',(1.39650694921403E-16,-1.,0.));
#537=DIRECTION('',(0.707106781186547,0.707106781186547,0.));
#538=DIRECTION('',(-1.,0.,0.));
#539=DIRECTION('',(0.707106781186547,-0.707106781186547,0.));
#540=DIRECTION('',(0.,1.,0.));
#541=DIRECTION('',(-0.707106781186547,-0.707106781186547,0.));
#542=DIRECTION('center_axis',(0.707106781186548,-0.707106781186548,0.));
#543=DIRECTION('ref_axis',(0.,0.,-1.));
#544=DIRECTION('',(-0.707106781186547,-0.707106781186547,0.));
#545=DIRECTION('',(0.,0.,-1.));
#546=DIRECTION('',(0.,0.,1.));
#547=DIRECTION('center_axis',(0.,-1.,0.));
#548=DIRECTION('ref_axis',(1.,0.,0.));
#549=DIRECTION('',(1.,0.,0.));
#550=DIRECTION('',(0.,0.,1.));
#551=DIRECTION('center_axis',(-0.707106781186548,-0.707106781186548,0.));
#552=DIRECTION('ref_axis',(0.,0.,1.));
#553=DIRECTION('',(-0.707106781186547,0.707106781186547,0.));
#554=DIRECTION('',(0.,0.,-1.));
#555=DIRECTION('center_axis',(-0.707106781186548,0.707106781186548,0.));
#556=DIRECTION('ref_axis',(0.,0.,1.));
#557=DIRECTION('',(0.707106781186547,0.707106781186547,0.));
#558=DIRECTION('',(0.,0.,1.));
#559=DIRECTION('center_axis',(1.,1.39650694921403E-16,0.));
#560=DIRECTION('ref_axis',(-1.39650694921403E-16,1.,0.));
#561=DIRECTION('',(-1.39650694921403E-16,1.,0.));
#562=DIRECTION('center_axis',(-1.,0.,0.));
#563=DIRECTION('ref_axis',(0.,-1.,0.));
#564=DIRECTION('',(0.,-1.,0.));
#565=DIRECTION('center_axis',(0.,0.,1.));
#566=DIRECTION('ref_axis',(1.,0.,0.));
#567=CARTESIAN_POINT('',(0.,0.,0.));
#568=CARTESIAN_POINT('Origin',(0.,0.,4.35));
#569=CARTESIAN_POINT('',(-3.5,-4.28626379701574E-16,4.1));
#570=CARTESIAN_POINT('',(3.5,4.28626379701574E-16,4.1));
#571=CARTESIAN_POINT('Origin',(0.,0.,4.1));
#572=CARTESIAN_POINT('',(4.,4.89858719658941E-16,4.6));
#573=CARTESIAN_POINT('',(3.75,4.59242549680257E-16,4.35));
#574=CARTESIAN_POINT('Origin',(0.,0.,4.6));
#575=CARTESIAN_POINT('Origin',(0.,0.,4.1));
#576=CARTESIAN_POINT('Origin',(0.,0.,-44.9286837719965));
#577=CARTESIAN_POINT('',(-3.5,-4.28626379701574E-16,-15.5));
#578=CARTESIAN_POINT('Origin',(0.,0.,-15.5));
#579=CARTESIAN_POINT('',(-3.5,-4.28626379701574E-16,-44.9286837719965));
#580=CARTESIAN_POINT('Origin',(0.,0.,4.6));
#581=CARTESIAN_POINT('',(-9.35,0.,4.6));
#582=CARTESIAN_POINT('',(9.35,-1.14504475720278E-15,4.6));
#583=CARTESIAN_POINT('Origin',(0.,0.,4.6));
#584=CARTESIAN_POINT('Origin',(0.,0.,4.6));
#585=CARTESIAN_POINT('Origin',(0.,0.,2.6407032072146));
#586=CARTESIAN_POINT('',(-12.8,0.,4.6));
#587=CARTESIAN_POINT('',(12.8,-1.56754790290861E-15,4.6));
#588=CARTESIAN_POINT('Origin',(0.,0.,4.6));
#589=CARTESIAN_POINT('Origin',(0.,0.,4.6));
#590=CARTESIAN_POINT('Origin',(11.075,-1.35629633005569E-15,2.6407032072146));
#591=CARTESIAN_POINT('Origin',(-6.71977093852058E-17,0.,-14.925));
#592=CARTESIAN_POINT('',(-10.48,-1.28342984550643E-15,-14.35));
#593=CARTESIAN_POINT('',(10.48,1.28342984550643E-15,-14.35));
#594=CARTESIAN_POINT('Origin',(-1.34395418770413E-16,0.,-14.35));
#595=CARTESIAN_POINT('',(9.33,1.14259546360448E-15,-15.5));
#596=CARTESIAN_POINT('',(9.905,1.21301265455545E-15,-14.925));
#597=CARTESIAN_POINT('Origin',(9.24446373305873E-31,0.,-15.5));
#598=CARTESIAN_POINT('Origin',(-1.34395418770413E-16,0.,-14.35));
#599=CARTESIAN_POINT('Origin',(10.48,0.,-15.5));
#600=CARTESIAN_POINT('Origin',(-4.6746232615796E-16,0.,-11.5));
#601=CARTESIAN_POINT('',(10.48,0.,-7.5));
#602=CARTESIAN_POINT('',(-10.48,-1.28342984550643E-15,-7.5));
#603=CARTESIAN_POINT('Origin',(-9.34924652315921E-16,0.,-7.5));
#604=CARTESIAN_POINT('Origin',(-9.34924652315921E-16,0.,-7.5));
#605=CARTESIAN_POINT('',(-10.48,-1.28342984550643E-15,-11.5));
#606=CARTESIAN_POINT('Origin',(9.3,0.,-7.5));
#607=CARTESIAN_POINT('',(9.3,0.,-7.5));
#608=CARTESIAN_POINT('',(-9.3,-1.13892152320704E-15,-7.5));
#609=CARTESIAN_POINT('Origin',(-9.34924652315921E-16,0.,-7.5));
#610=CARTESIAN_POINT('Origin',(-9.34924652315921E-16,0.,-7.5));
#611=CARTESIAN_POINT('Origin',(-1.02257383847054E-15,0.,-6.75));
#612=CARTESIAN_POINT('',(9.3,0.,-6.));
#613=CARTESIAN_POINT('',(-9.3,-1.13892152320704E-15,-6.));
#614=CARTESIAN_POINT('Origin',(-1.11022302462516E-15,0.,-6.));
#615=CARTESIAN_POINT('Origin',(-1.11022302462516E-15,0.,-6.));
#616=CARTESIAN_POINT('',(-9.3,-1.13892152320704E-15,-6.75));
#617=CARTESIAN_POINT('Origin',(12.25,0.,-6.));
#618=CARTESIAN_POINT('',(12.25,0.,-6.));
#619=CARTESIAN_POINT('',(-12.25,-1.50019232895551E-15,-6.));
#620=CARTESIAN_POINT('Origin',(-1.11022302462516E-15,0.,-6.));
#621=CARTESIAN_POINT('Origin',(-1.11022302462516E-15,0.,-6.));
#622=CARTESIAN_POINT('Origin',(-1.46081976924363E-15,0.,-3.));
#623=CARTESIAN_POINT('',(12.25,0.,-1.50019232895551E-15));
#624=CARTESIAN_POINT('',(-12.25,-1.50019232895551E-15,0.));
#625=CARTESIAN_POINT('Origin',(-1.8114165138621E-15,0.,0.));
#626=CARTESIAN_POINT('Origin',(-1.8114165138621E-15,0.,0.));
#627=CARTESIAN_POINT('',(-12.25,-1.50019232895551E-15,-3.));
#628=CARTESIAN_POINT('Origin',(14.9,14.9,0.));
#629=CARTESIAN_POINT('',(13.9,15.9,4.6));
#630=CARTESIAN_POINT('',(15.9,13.9,4.6));
#631=CARTESIAN_POINT('',(14.9,14.9,4.6));
#632=CARTESIAN_POINT('',(15.9,13.9,0.));
#633=CARTESIAN_POINT('',(15.9,13.9,0.));
#634=CARTESIAN_POINT('',(13.9,15.9,0.));
#635=CARTESIAN_POINT('',(14.9,14.9,0.));
#636=CARTESIAN_POINT('',(13.9,15.9,0.));
#637=CARTESIAN_POINT('Origin',(15.9,15.9,0.));
#638=CARTESIAN_POINT('',(-13.9,15.9,0.));
#639=CARTESIAN_POINT('',(-15.9,15.9,0.));
#640=CARTESIAN_POINT('',(-13.9,15.9,4.6));
#641=CARTESIAN_POINT('',(-13.9,15.9,0.));
#642=CARTESIAN_POINT('',(-15.9,15.9,4.6));
#643=CARTESIAN_POINT('Origin',(1.04738021191052E-15,-5.23690105955262E-16,
0.));
#644=CARTESIAN_POINT('',(15.9,-13.9,0.));
#645=CARTESIAN_POINT('',(15.9,15.9,0.));
#646=CARTESIAN_POINT('',(13.9,-15.9,0.));
#647=CARTESIAN_POINT('',(14.9,-14.9,0.));
#648=CARTESIAN_POINT('',(-13.9,-15.9,0.));
#649=CARTESIAN_POINT('',(15.9,-15.9,0.));
#650=CARTESIAN_POINT('',(-15.9,-13.9,0.));
#651=CARTESIAN_POINT('',(-14.9,-14.9,0.));
#652=CARTESIAN_POINT('',(-15.9,13.9,0.));
#653=CARTESIAN_POINT('',(-15.9,-15.9,0.));
#654=CARTESIAN_POINT('',(-14.9,14.9,0.));
#655=CARTESIAN_POINT('Origin',(14.9,-14.9,0.));
#656=CARTESIAN_POINT('',(15.9,-13.9,4.6));
#657=CARTESIAN_POINT('',(13.9,-15.9,4.6));
#658=CARTESIAN_POINT('',(14.9,-14.9,4.6));
#659=CARTESIAN_POINT('',(13.9,-15.9,0.));
#660=CARTESIAN_POINT('',(15.9,-13.9,0.));
#661=CARTESIAN_POINT('Origin',(-15.9,-15.9,0.));
#662=CARTESIAN_POINT('',(-13.9,-15.9,4.6));
#663=CARTESIAN_POINT('',(15.9,-15.9,4.6));
#664=CARTESIAN_POINT('',(-13.9,-15.9,0.));
#665=CARTESIAN_POINT('Origin',(-14.9,-14.9,0.));
#666=CARTESIAN_POINT('',(-15.9,-13.9,4.6));
#667=CARTESIAN_POINT('',(-14.9,-14.9,4.6));
#668=CARTESIAN_POINT('',(-15.9,-13.9,0.));
#669=CARTESIAN_POINT('Origin',(-14.9,14.9,0.));
#670=CARTESIAN_POINT('',(-15.9,13.9,4.6));
#671=CARTESIAN_POINT('',(-14.9,14.9,4.6));
#672=CARTESIAN_POINT('',(-15.9,13.9,0.));
#673=CARTESIAN_POINT('Origin',(15.9,-15.9,0.));
#674=CARTESIAN_POINT('',(15.9,15.9,4.6));
#675=CARTESIAN_POINT('Origin',(-15.9,15.9,0.));
#676=CARTESIAN_POINT('',(-15.9,-15.9,4.6));
#677=CARTESIAN_POINT('Origin',(0.,0.,4.6));
#678=UNCERTAINTY_MEASURE_WITH_UNIT(LENGTH_MEASURE(0.01),#682,
'DISTANCE_ACCURACY_VALUE',
'Maximum model space distance between geometric entities at asserted c
onnectivities');
#679=UNCERTAINTY_MEASURE_WITH_UNIT(LENGTH_MEASURE(0.01),#682,
'DISTANCE_ACCURACY_VALUE',
'Maximum model space distance between geometric entities at asserted c
onnectivities');
#680=(
GEOMETRIC_REPRESENTATION_CONTEXT(3)
GLOBAL_UNCERTAINTY_ASSIGNED_CONTEXT((#678))
GLOBAL_UNIT_ASSIGNED_CONTEXT((#682,#684,#685))
REPRESENTATION_CONTEXT('','3D')
);
#681=(
GEOMETRIC_REPRESENTATION_CONTEXT(3)
GLOBAL_UNCERTAINTY_ASSIGNED_CONTEXT((#679))
GLOBAL_UNIT_ASSIGNED_CONTEXT((#682,#684,#685))
REPRESENTATION_CONTEXT('','3D')
);
#682=(
LENGTH_UNIT()
NAMED_UNIT(*)
SI_UNIT(.MILLI.,.METRE.)
);
#683=(
LENGTH_UNIT()
NAMED_UNIT(*)
SI_UNIT(.CENTI.,.METRE.)
);
#684=(
NAMED_UNIT(*)
PLANE_ANGLE_UNIT()
SI_UNIT($,.RADIAN.)
);
#685=(
NAMED_UNIT(*)
SI_UNIT($,.STERADIAN.)
SOLID_ANGLE_UNIT()
);
#686=SHAPE_DEFINITION_REPRESENTATION(#687,#688);
#687=PRODUCT_DEFINITION_SHAPE('',$,#690);
#688=SHAPE_REPRESENTATION('',(#405),#680);
#689=DESIGN_CONTEXT('part definition',#694,'design');
#690=PRODUCT_DEFINITION('racacoplguia1-2m','racacoplguia1-2m',#691,#689);
#691=PRODUCT_DEFINITION_FORMATION('',$,#696);
#692=PRODUCT_RELATED_PRODUCT_CATEGORY('racacoplguia1-2m',
'racacoplguia1-2m',(#696));
#693=APPLICATION_PROTOCOL_DEFINITION('international standard',
'ap203_configuration_controlled_3d_design_of_mechanical_parts_and_asse
mblies_mim_lf',2004,#694);
#694=APPLICATION_CONTEXT(
'Configuration Controlled 3D Design of Mechanical Parts and Assemblies');
#695=MECHANICAL_CONTEXT('part definition',#694,'mechanical');
#696=PRODUCT('racacoplguia1-2m','racacoplguia1-2m',$,(#695));
#697=PRESENTATION_STYLE_ASSIGNMENT((#698));
#698=SURFACE_STYLE_USAGE(.BOTH.,#701);
#699=SURFACE_STYLE_RENDERING_WITH_PROPERTIES($,#705,(#700));
#700=SURFACE_STYLE_TRANSPARENT(0.);
#701=SURFACE_SIDE_STYLE('',(#702,#699));
#702=SURFACE_STYLE_FILL_AREA(#703);
#703=FILL_AREA_STYLE('',(#704));
#704=FILL_AREA_STYLE_COLOUR('',#705);
#705=COLOUR_RGB('',0.749019607843137,0.749019607843137,0.749019607843137);
ENDSEC;
END-ISO-10303-21;
