ISO-10303-21;
HEADER;
/* Generated by software containing ST-Developer
 * from STEP Tools, Inc. (www.steptools.com) 
 */

FILE_DESCRIPTION(
/* description */ (''),
/* implementation_level */ '2;1');

FILE_NAME(
/* name */ 'C:\\Users\\enginyeria\\Desktop\\rfbpvf33-5.stp',
/* time_stamp */ '2021-05-25T12:27:58+02:00',
/* author */ ('enginyeria'),
/* organization */ (''),
/* preprocessor_version */ 'ST-DEVELOPER v17.2',
/* originating_system */ 'Autodesk Inventor 2019',
/* authorisation */ '');

FILE_SCHEMA (('CONFIG_CONTROL_DESIGN'));
ENDSEC;

DATA;
#10=MECHANICAL_DESIGN_GEOMETRIC_PRESENTATION_REPRESENTATION('',(#13),#92);
#11=SHAPE_REPRESENTATION_RELATIONSHIP('SRR','None',#99,#12);
#12=ADVANCED_BREP_SHAPE_REPRESENTATION('',(#14),#91);
#13=STYLED_ITEM('',(#108),#14);
#14=MANIFOLD_SOLID_BREP('S\X\F3lido1',#42);
#15=LINE('',#87,#16);
#16=VECTOR('',#77,16.75);
#17=CYLINDRICAL_SURFACE('',#64,16.75);
#18=FACE_OUTER_BOUND('',#21,.T.);
#19=FACE_OUTER_BOUND('',#22,.T.);
#20=FACE_OUTER_BOUND('',#23,.T.);
#21=EDGE_LOOP('',(#31));
#22=EDGE_LOOP('',(#32,#33,#34,#35));
#23=EDGE_LOOP('',(#36));
#24=CIRCLE('',#63,16.75);
#25=CIRCLE('',#65,16.75);
#26=VERTEX_POINT('',#82);
#27=VERTEX_POINT('',#85);
#28=EDGE_CURVE('',#26,#26,#24,.T.);
#29=EDGE_CURVE('',#27,#27,#25,.T.);
#30=EDGE_CURVE('',#27,#26,#15,.T.);
#31=ORIENTED_EDGE('',*,*,#28,.T.);
#32=ORIENTED_EDGE('',*,*,#29,.F.);
#33=ORIENTED_EDGE('',*,*,#30,.T.);
#34=ORIENTED_EDGE('',*,*,#28,.F.);
#35=ORIENTED_EDGE('',*,*,#30,.F.);
#36=ORIENTED_EDGE('',*,*,#29,.T.);
#37=PLANE('',#62);
#38=PLANE('',#66);
#39=ADVANCED_FACE('',(#18),#37,.F.);
#40=ADVANCED_FACE('',(#19),#17,.T.);
#41=ADVANCED_FACE('',(#20),#38,.T.);
#42=CLOSED_SHELL('',(#39,#40,#41));
#43=DERIVED_UNIT_ELEMENT(#45,1.);
#44=DERIVED_UNIT_ELEMENT(#94,3.);
#45=(
MASS_UNIT()
NAMED_UNIT(*)
SI_UNIT($,.GRAM.)
);
#46=DERIVED_UNIT((#43,#44));
#47=MEASURE_REPRESENTATION_ITEM('density measure',
POSITIVE_RATIO_MEASURE(1.),#46);
#48=PROPERTY_DEFINITION_REPRESENTATION(#53,#50);
#49=PROPERTY_DEFINITION_REPRESENTATION(#54,#51);
#50=REPRESENTATION('material name',(#52),#91);
#51=REPRESENTATION('density',(#47),#91);
#52=DESCRIPTIVE_REPRESENTATION_ITEM('Gen\X\E9rico','Gen\X\E9rico');
#53=PROPERTY_DEFINITION('material property','material name',#101);
#54=PROPERTY_DEFINITION('material property','density of part',#101);
#55=DATE_TIME_ROLE('creation_date');
#56=CC_DESIGN_DATE_AND_TIME_ASSIGNMENT(#57,#55,(#101));
#57=DATE_AND_TIME(#58,#59);
#58=CALENDAR_DATE(2021,25,5);
#59=LOCAL_TIME(10,22,59.,#60);
#60=COORDINATED_UNIVERSAL_TIME_OFFSET(0,0,.BEHIND.);
#61=AXIS2_PLACEMENT_3D('placement',#80,#67,#68);
#62=AXIS2_PLACEMENT_3D('',#81,#69,#70);
#63=AXIS2_PLACEMENT_3D('',#83,#71,#72);
#64=AXIS2_PLACEMENT_3D('',#84,#73,#74);
#65=AXIS2_PLACEMENT_3D('',#86,#75,#76);
#66=AXIS2_PLACEMENT_3D('',#88,#78,#79);
#67=DIRECTION('axis',(0.,0.,1.));
#68=DIRECTION('refdir',(1.,0.,0.));
#69=DIRECTION('center_axis',(0.,1.,0.));
#70=DIRECTION('ref_axis',(0.,0.,1.));
#71=DIRECTION('center_axis',(0.,-1.,0.));
#72=DIRECTION('ref_axis',(1.,0.,0.));
#73=DIRECTION('center_axis',(0.,1.,0.));
#74=DIRECTION('ref_axis',(1.,0.,0.));
#75=DIRECTION('center_axis',(0.,1.,0.));
#76=DIRECTION('ref_axis',(1.,0.,0.));
#77=DIRECTION('',(0.,-1.,0.));
#78=DIRECTION('center_axis',(0.,1.,0.));
#79=DIRECTION('ref_axis',(0.,0.,1.));
#80=CARTESIAN_POINT('',(0.,0.,0.));
#81=CARTESIAN_POINT('Origin',(6.12820093177067E-16,-0.9,0.));
#82=CARTESIAN_POINT('',(-16.75,-0.9,2.05128338857182E-15));
#83=CARTESIAN_POINT('Origin',(0.,-0.9,0.));
#84=CARTESIAN_POINT('Origin',(0.,0.,0.));
#85=CARTESIAN_POINT('',(-16.75,0.9,2.05128338857182E-15));
#86=CARTESIAN_POINT('Origin',(0.,0.9,0.));
#87=CARTESIAN_POINT('',(-16.75,0.,2.05128338857182E-15));
#88=CARTESIAN_POINT('Origin',(6.12820093177067E-16,0.9,0.));
#89=UNCERTAINTY_MEASURE_WITH_UNIT(LENGTH_MEASURE(0.01),#93,
'DISTANCE_ACCURACY_VALUE',
'Maximum model space distance between geometric entities at asserted c
onnectivities');
#90=UNCERTAINTY_MEASURE_WITH_UNIT(LENGTH_MEASURE(0.01),#93,
'DISTANCE_ACCURACY_VALUE',
'Maximum model space distance between geometric entities at asserted c
onnectivities');
#91=(
GEOMETRIC_REPRESENTATION_CONTEXT(3)
GLOBAL_UNCERTAINTY_ASSIGNED_CONTEXT((#89))
GLOBAL_UNIT_ASSIGNED_CONTEXT((#93,#95,#96))
REPRESENTATION_CONTEXT('','3D')
);
#92=(
GEOMETRIC_REPRESENTATION_CONTEXT(3)
GLOBAL_UNCERTAINTY_ASSIGNED_CONTEXT((#90))
GLOBAL_UNIT_ASSIGNED_CONTEXT((#93,#95,#96))
REPRESENTATION_CONTEXT('','3D')
);
#93=(
LENGTH_UNIT()
NAMED_UNIT(*)
SI_UNIT(.MILLI.,.METRE.)
);
#94=(
LENGTH_UNIT()
NAMED_UNIT(*)
SI_UNIT(.CENTI.,.METRE.)
);
#95=(
NAMED_UNIT(*)
PLANE_ANGLE_UNIT()
SI_UNIT($,.RADIAN.)
);
#96=(
NAMED_UNIT(*)
SI_UNIT($,.STERADIAN.)
SOLID_ANGLE_UNIT()
);
#97=SHAPE_DEFINITION_REPRESENTATION(#98,#99);
#98=PRODUCT_DEFINITION_SHAPE('',$,#101);
#99=SHAPE_REPRESENTATION('',(#61),#91);
#100=DESIGN_CONTEXT('part definition',#105,'design');
#101=PRODUCT_DEFINITION('Pieza26','Pieza26',#102,#100);
#102=PRODUCT_DEFINITION_FORMATION('',$,#107);
#103=PRODUCT_RELATED_PRODUCT_CATEGORY('Pieza26','Pieza26',(#107));
#104=APPLICATION_PROTOCOL_DEFINITION('international standard',
'ap203_configuration_controlled_3d_design_of_mechanical_parts_and_asse
mblies_mim_lf',2004,#105);
#105=APPLICATION_CONTEXT(
'Configuration Controlled 3D Design of Mechanical Parts and Assemblies');
#106=MECHANICAL_CONTEXT('part definition',#105,'mechanical');
#107=PRODUCT('Pieza26','Pieza26',$,(#106));
#108=PRESENTATION_STYLE_ASSIGNMENT((#109));
#109=SURFACE_STYLE_USAGE(.BOTH.,#112);
#110=SURFACE_STYLE_RENDERING_WITH_PROPERTIES($,#116,(#111));
#111=SURFACE_STYLE_TRANSPARENT(0.);
#112=SURFACE_SIDE_STYLE('',(#113,#110));
#113=SURFACE_STYLE_FILL_AREA(#114);
#114=FILL_AREA_STYLE('',(#115));
#115=FILL_AREA_STYLE_COLOUR('',#116);
#116=COLOUR_RGB('',0.749019607843137,0.749019607843137,0.749019607843137);
ENDSEC;
END-ISO-10303-21;
