ISO-10303-21;
HEADER;
/* Generated by software containing ST-Developer
 * from STEP Tools, Inc. (www.steptools.com) 
 */

FILE_DESCRIPTION(
/* description */ (''),
/* implementation_level */ '2;1');

FILE_NAME(
/* name */ 
'Z:\\14-ALMACEN-3D\\WEB-2020\\grandes-cargas\\vml\\3D_vml180nit.stp',
/* time_stamp */ '2020-04-17T08:35:55+02:00',
/* author */ ('lmacia'),
/* organization */ (''),
/* preprocessor_version */ 'ST-DEVELOPER v17',
/* originating_system */ 'Autodesk Inventor 2019',
/* authorisation */ '');

FILE_SCHEMA (('AUTOMOTIVE_DESIGN { 1 0 10303 214 3 1 1 }'));
ENDSEC;

DATA;
#10=MECHANICAL_DESIGN_GEOMETRIC_PRESENTATION_REPRESENTATION('',(#263,#264,
#265,#266,#267,#268,#269),#538);
#11=SHAPE_REPRESENTATION_RELATIONSHIP('SRR','None',#545,#12);
#12=ADVANCED_BREP_SHAPE_REPRESENTATION('',(#13),#537);
#13=MANIFOLD_SOLID_BREP('S\X\F3lido2',#285);
#14=TOROIDAL_SURFACE('',#334,89.7255135173558,6.13159545796952);
#15=FACE_BOUND('',#48,.T.);
#16=FACE_BOUND('',#49,.T.);
#17=FACE_BOUND('',#54,.T.);
#18=FACE_BOUND('',#57,.T.);
#19=FACE_BOUND('',#61,.T.);
#20=PLANE('',#311);
#21=PLANE('',#325);
#22=PLANE('',#331);
#23=PLANE('',#342);
#24=PLANE('',#343);
#25=CYLINDRICAL_SURFACE('',#309,4.283);
#26=CYLINDRICAL_SURFACE('',#319,89.9999999999952);
#27=CYLINDRICAL_SURFACE('',#328,89.9999999999867);
#28=CYLINDRICAL_SURFACE('',#339,88.4999999999934);
#29=CYLINDRICAL_SURFACE('',#349,7.00000000000098);
#30=FACE_OUTER_BOUND('',#45,.T.);
#31=FACE_OUTER_BOUND('',#46,.T.);
#32=FACE_OUTER_BOUND('',#47,.T.);
#33=FACE_OUTER_BOUND('',#50,.T.);
#34=FACE_OUTER_BOUND('',#51,.T.);
#35=FACE_OUTER_BOUND('',#52,.T.);
#36=FACE_OUTER_BOUND('',#53,.T.);
#37=FACE_OUTER_BOUND('',#55,.T.);
#38=FACE_OUTER_BOUND('',#56,.T.);
#39=FACE_OUTER_BOUND('',#58,.T.);
#40=FACE_OUTER_BOUND('',#59,.T.);
#41=FACE_OUTER_BOUND('',#60,.T.);
#42=FACE_OUTER_BOUND('',#62,.T.);
#43=FACE_OUTER_BOUND('',#63,.T.);
#44=FACE_OUTER_BOUND('',#64,.T.);
#45=EDGE_LOOP('',(#181,#182,#183,#184,#185));
#46=EDGE_LOOP('',(#186,#187,#188,#189,#190));
#47=EDGE_LOOP('',(#191,#192));
#48=EDGE_LOOP('',(#193,#194));
#49=EDGE_LOOP('',(#195));
#50=EDGE_LOOP('',(#196,#197,#198,#199,#200,#201));
#51=EDGE_LOOP('',(#202,#203,#204,#205,#206,#207));
#52=EDGE_LOOP('',(#208,#209,#210,#211,#212,#213));
#53=EDGE_LOOP('',(#214,#215));
#54=EDGE_LOOP('',(#216,#217));
#55=EDGE_LOOP('',(#218,#219,#220,#221,#222,#223));
#56=EDGE_LOOP('',(#224,#225));
#57=EDGE_LOOP('',(#226,#227));
#58=EDGE_LOOP('',(#228,#229,#230,#231,#232,#233,#234));
#59=EDGE_LOOP('',(#235,#236,#237,#238,#239,#240,#241));
#60=EDGE_LOOP('',(#242,#243));
#61=EDGE_LOOP('',(#244));
#62=EDGE_LOOP('',(#245,#246));
#63=EDGE_LOOP('',(#247,#248,#249,#250,#251,#252));
#64=EDGE_LOOP('',(#253,#254,#255,#256,#257,#258));
#65=LINE('',#456,#74);
#66=LINE('',#463,#75);
#67=LINE('',#478,#76);
#68=LINE('',#484,#77);
#69=LINE('',#487,#78);
#70=LINE('',#501,#79);
#71=LINE('',#520,#80);
#72=LINE('',#532,#81);
#73=LINE('',#534,#82);
#74=VECTOR('',#356,4.683);
#75=VECTOR('',#365,4.283);
#76=VECTOR('',#382,89.5000000000026);
#77=VECTOR('',#389,89.9999999999952);
#78=VECTOR('',#392,89.7499999999947);
#79=VECTOR('',#409,89.9999999999867);
#80=VECTOR('',#432,88.4999999999934);
#81=VECTOR('',#447,6.38650000000718);
#82=VECTOR('',#450,7.00000000000098);
#83=CIRCLE('',#306,5.083);
#84=CIRCLE('',#307,4.283);
#85=CIRCLE('',#308,4.283);
#86=CIRCLE('',#310,4.283);
#87=CIRCLE('',#312,89.0000000000026);
#88=CIRCLE('',#313,89.0000000000026);
#89=CIRCLE('',#314,6.99999999999535);
#90=CIRCLE('',#315,6.99999999999535);
#91=CIRCLE('',#317,90.0000000000025);
#92=CIRCLE('',#318,90.0000000000025);
#93=CIRCLE('',#320,89.9999999999878);
#94=CIRCLE('',#321,89.9999999999878);
#95=CIRCLE('',#323,89.5000000000016);
#96=CIRCLE('',#324,89.5000000000016);
#97=CIRCLE('',#326,89.999999999987);
#98=CIRCLE('',#327,89.999999999987);
#99=CIRCLE('',#329,89.9999999999864);
#100=CIRCLE('',#330,89.9999999999864);
#101=CIRCLE('',#332,84.499999999996);
#102=CIRCLE('',#333,84.499999999996);
#103=CIRCLE('',#335,88.4999999999934);
#104=CIRCLE('',#336,88.4999999999934);
#105=CIRCLE('',#337,88.4999999999934);
#106=CIRCLE('',#338,6.13159545796952);
#107=CIRCLE('',#340,88.4999999999933);
#108=CIRCLE('',#341,88.4999999999933);
#109=CIRCLE('',#344,5.77300000000776);
#110=CIRCLE('',#345,5.77300000000776);
#111=CIRCLE('',#347,7.0000000000066);
#112=CIRCLE('',#348,7.0000000000066);
#113=VERTEX_POINT('',#453);
#114=VERTEX_POINT('',#455);
#115=VERTEX_POINT('',#457);
#116=VERTEX_POINT('',#461);
#117=VERTEX_POINT('',#465);
#118=VERTEX_POINT('',#466);
#119=VERTEX_POINT('',#469);
#120=VERTEX_POINT('',#470);
#121=VERTEX_POINT('',#474);
#122=VERTEX_POINT('',#475);
#123=VERTEX_POINT('',#480);
#124=VERTEX_POINT('',#481);
#125=VERTEX_POINT('',#486);
#126=VERTEX_POINT('',#488);
#127=VERTEX_POINT('',#492);
#128=VERTEX_POINT('',#493);
#129=VERTEX_POINT('',#497);
#130=VERTEX_POINT('',#498);
#131=VERTEX_POINT('',#503);
#132=VERTEX_POINT('',#504);
#133=VERTEX_POINT('',#508);
#134=VERTEX_POINT('',#509);
#135=VERTEX_POINT('',#511);
#136=VERTEX_POINT('',#516);
#137=VERTEX_POINT('',#517);
#138=VERTEX_POINT('',#523);
#139=VERTEX_POINT('',#524);
#140=VERTEX_POINT('',#528);
#141=VERTEX_POINT('',#529);
#142=EDGE_CURVE('',#113,#113,#83,.T.);
#143=EDGE_CURVE('',#113,#114,#65,.T.);
#144=EDGE_CURVE('',#114,#115,#84,.T.);
#145=EDGE_CURVE('',#115,#114,#85,.T.);
#146=EDGE_CURVE('',#116,#116,#86,.T.);
#147=EDGE_CURVE('',#116,#115,#66,.T.);
#148=EDGE_CURVE('',#117,#118,#87,.T.);
#149=EDGE_CURVE('',#118,#117,#88,.T.);
#150=EDGE_CURVE('',#119,#120,#89,.T.);
#151=EDGE_CURVE('',#120,#119,#90,.T.);
#152=EDGE_CURVE('',#121,#122,#91,.T.);
#153=EDGE_CURVE('',#122,#121,#92,.T.);
#154=EDGE_CURVE('',#122,#118,#67,.T.);
#155=EDGE_CURVE('',#123,#124,#93,.T.);
#156=EDGE_CURVE('',#124,#123,#94,.T.);
#157=EDGE_CURVE('',#124,#122,#68,.T.);
#158=EDGE_CURVE('',#124,#125,#69,.T.);
#159=EDGE_CURVE('',#126,#125,#95,.T.);
#160=EDGE_CURVE('',#125,#126,#96,.T.);
#161=EDGE_CURVE('',#127,#128,#97,.T.);
#162=EDGE_CURVE('',#128,#127,#98,.T.);
#163=EDGE_CURVE('',#129,#130,#99,.T.);
#164=EDGE_CURVE('',#130,#129,#100,.T.);
#165=EDGE_CURVE('',#130,#128,#70,.T.);
#166=EDGE_CURVE('',#131,#132,#101,.T.);
#167=EDGE_CURVE('',#132,#131,#102,.T.);
#168=EDGE_CURVE('',#133,#134,#103,.T.);
#169=EDGE_CURVE('',#135,#133,#104,.T.);
#170=EDGE_CURVE('',#134,#135,#105,.T.);
#171=EDGE_CURVE('',#134,#132,#106,.T.);
#172=EDGE_CURVE('',#136,#137,#107,.T.);
#173=EDGE_CURVE('',#137,#136,#108,.T.);
#174=EDGE_CURVE('',#137,#135,#71,.T.);
#175=EDGE_CURVE('',#138,#139,#109,.T.);
#176=EDGE_CURVE('',#139,#138,#110,.T.);
#177=EDGE_CURVE('',#140,#141,#111,.T.);
#178=EDGE_CURVE('',#141,#140,#112,.T.);
#179=EDGE_CURVE('',#141,#139,#72,.T.);
#180=EDGE_CURVE('',#120,#141,#73,.T.);
#181=ORIENTED_EDGE('',*,*,#142,.T.);
#182=ORIENTED_EDGE('',*,*,#143,.T.);
#183=ORIENTED_EDGE('',*,*,#144,.T.);
#184=ORIENTED_EDGE('',*,*,#145,.T.);
#185=ORIENTED_EDGE('',*,*,#143,.F.);
#186=ORIENTED_EDGE('',*,*,#146,.F.);
#187=ORIENTED_EDGE('',*,*,#147,.T.);
#188=ORIENTED_EDGE('',*,*,#144,.F.);
#189=ORIENTED_EDGE('',*,*,#145,.F.);
#190=ORIENTED_EDGE('',*,*,#147,.F.);
#191=ORIENTED_EDGE('',*,*,#148,.F.);
#192=ORIENTED_EDGE('',*,*,#149,.F.);
#193=ORIENTED_EDGE('',*,*,#150,.T.);
#194=ORIENTED_EDGE('',*,*,#151,.T.);
#195=ORIENTED_EDGE('',*,*,#142,.F.);
#196=ORIENTED_EDGE('',*,*,#152,.F.);
#197=ORIENTED_EDGE('',*,*,#153,.F.);
#198=ORIENTED_EDGE('',*,*,#154,.T.);
#199=ORIENTED_EDGE('',*,*,#149,.T.);
#200=ORIENTED_EDGE('',*,*,#148,.T.);
#201=ORIENTED_EDGE('',*,*,#154,.F.);
#202=ORIENTED_EDGE('',*,*,#155,.F.);
#203=ORIENTED_EDGE('',*,*,#156,.F.);
#204=ORIENTED_EDGE('',*,*,#157,.T.);
#205=ORIENTED_EDGE('',*,*,#153,.T.);
#206=ORIENTED_EDGE('',*,*,#152,.T.);
#207=ORIENTED_EDGE('',*,*,#157,.F.);
#208=ORIENTED_EDGE('',*,*,#155,.T.);
#209=ORIENTED_EDGE('',*,*,#158,.T.);
#210=ORIENTED_EDGE('',*,*,#159,.F.);
#211=ORIENTED_EDGE('',*,*,#160,.F.);
#212=ORIENTED_EDGE('',*,*,#158,.F.);
#213=ORIENTED_EDGE('',*,*,#156,.T.);
#214=ORIENTED_EDGE('',*,*,#161,.F.);
#215=ORIENTED_EDGE('',*,*,#162,.F.);
#216=ORIENTED_EDGE('',*,*,#159,.T.);
#217=ORIENTED_EDGE('',*,*,#160,.T.);
#218=ORIENTED_EDGE('',*,*,#163,.F.);
#219=ORIENTED_EDGE('',*,*,#164,.F.);
#220=ORIENTED_EDGE('',*,*,#165,.T.);
#221=ORIENTED_EDGE('',*,*,#162,.T.);
#222=ORIENTED_EDGE('',*,*,#161,.T.);
#223=ORIENTED_EDGE('',*,*,#165,.F.);
#224=ORIENTED_EDGE('',*,*,#163,.T.);
#225=ORIENTED_EDGE('',*,*,#164,.T.);
#226=ORIENTED_EDGE('',*,*,#166,.F.);
#227=ORIENTED_EDGE('',*,*,#167,.F.);
#228=ORIENTED_EDGE('',*,*,#168,.F.);
#229=ORIENTED_EDGE('',*,*,#169,.F.);
#230=ORIENTED_EDGE('',*,*,#170,.F.);
#231=ORIENTED_EDGE('',*,*,#171,.T.);
#232=ORIENTED_EDGE('',*,*,#167,.T.);
#233=ORIENTED_EDGE('',*,*,#166,.T.);
#234=ORIENTED_EDGE('',*,*,#171,.F.);
#235=ORIENTED_EDGE('',*,*,#172,.F.);
#236=ORIENTED_EDGE('',*,*,#173,.F.);
#237=ORIENTED_EDGE('',*,*,#174,.T.);
#238=ORIENTED_EDGE('',*,*,#169,.T.);
#239=ORIENTED_EDGE('',*,*,#168,.T.);
#240=ORIENTED_EDGE('',*,*,#170,.T.);
#241=ORIENTED_EDGE('',*,*,#174,.F.);
#242=ORIENTED_EDGE('',*,*,#172,.T.);
#243=ORIENTED_EDGE('',*,*,#173,.T.);
#244=ORIENTED_EDGE('',*,*,#146,.T.);
#245=ORIENTED_EDGE('',*,*,#175,.F.);
#246=ORIENTED_EDGE('',*,*,#176,.F.);
#247=ORIENTED_EDGE('',*,*,#177,.F.);
#248=ORIENTED_EDGE('',*,*,#178,.F.);
#249=ORIENTED_EDGE('',*,*,#179,.T.);
#250=ORIENTED_EDGE('',*,*,#176,.T.);
#251=ORIENTED_EDGE('',*,*,#175,.T.);
#252=ORIENTED_EDGE('',*,*,#179,.F.);
#253=ORIENTED_EDGE('',*,*,#150,.F.);
#254=ORIENTED_EDGE('',*,*,#151,.F.);
#255=ORIENTED_EDGE('',*,*,#180,.T.);
#256=ORIENTED_EDGE('',*,*,#178,.T.);
#257=ORIENTED_EDGE('',*,*,#177,.T.);
#258=ORIENTED_EDGE('',*,*,#180,.F.);
#259=CONICAL_SURFACE('',#305,4.683,0.785398163397485);
#260=CONICAL_SURFACE('',#316,89.5000000000026,0.785398163397354);
#261=CONICAL_SURFACE('',#322,89.7499999999947,0.785398163396852);
#262=CONICAL_SURFACE('',#346,6.38650000000718,0.785398163397357);
#263=STYLED_ITEM('',(#556),#270);
#264=STYLED_ITEM('',(#556),#271);
#265=STYLED_ITEM('',(#557),#272);
#266=STYLED_ITEM('',(#557),#273);
#267=STYLED_ITEM('',(#557),#274);
#268=STYLED_ITEM('',(#557),#275);
#269=STYLED_ITEM('',(#555),#13);
#270=ADVANCED_FACE('',(#30),#259,.F.);
#271=ADVANCED_FACE('',(#31),#25,.F.);
#272=ADVANCED_FACE('',(#32,#15,#16),#20,.T.);
#273=ADVANCED_FACE('',(#33),#260,.T.);
#274=ADVANCED_FACE('',(#34),#26,.T.);
#275=ADVANCED_FACE('',(#35),#261,.T.);
#276=ADVANCED_FACE('',(#36,#17),#21,.T.);
#277=ADVANCED_FACE('',(#37),#27,.T.);
#278=ADVANCED_FACE('',(#38,#18),#22,.T.);
#279=ADVANCED_FACE('',(#39),#14,.F.);
#280=ADVANCED_FACE('',(#40),#28,.T.);
#281=ADVANCED_FACE('',(#41,#19),#23,.T.);
#282=ADVANCED_FACE('',(#42),#24,.T.);
#283=ADVANCED_FACE('',(#43),#262,.T.);
#284=ADVANCED_FACE('',(#44),#29,.T.);
#285=CLOSED_SHELL('',(#270,#271,#272,#273,#274,#275,#276,#277,#278,#279,
#280,#281,#282,#283,#284));
#286=DERIVED_UNIT_ELEMENT(#288,1.);
#287=DERIVED_UNIT_ELEMENT(#540,3.);
#288=(
MASS_UNIT()
NAMED_UNIT(*)
SI_UNIT($,.GRAM.)
);
#289=DERIVED_UNIT((#286,#287));
#290=MEASURE_REPRESENTATION_ITEM('density measure',
POSITIVE_RATIO_MEASURE(1.),#289);
#291=PROPERTY_DEFINITION_REPRESENTATION(#296,#293);
#292=PROPERTY_DEFINITION_REPRESENTATION(#297,#294);
#293=REPRESENTATION('material name',(#295),#537);
#294=REPRESENTATION('density',(#290),#537);
#295=DESCRIPTIVE_REPRESENTATION_ITEM('Gen\X\E9rico','Gen\X\E9rico');
#296=PROPERTY_DEFINITION('material property','material name',#547);
#297=PROPERTY_DEFINITION('material property','density of part',#547);
#298=DATE_TIME_ROLE('creation_date');
#299=APPLIED_DATE_AND_TIME_ASSIGNMENT(#300,#298,(#547));
#300=DATE_AND_TIME(#301,#302);
#301=CALENDAR_DATE(2020,16,4);
#302=LOCAL_TIME(12,20,0.,#303);
#303=COORDINATED_UNIVERSAL_TIME_OFFSET(0,0,.BEHIND.);
#304=AXIS2_PLACEMENT_3D('placement',#451,#350,#351);
#305=AXIS2_PLACEMENT_3D('',#452,#352,#353);
#306=AXIS2_PLACEMENT_3D('',#454,#354,#355);
#307=AXIS2_PLACEMENT_3D('',#458,#357,#358);
#308=AXIS2_PLACEMENT_3D('',#459,#359,#360);
#309=AXIS2_PLACEMENT_3D('',#460,#361,#362);
#310=AXIS2_PLACEMENT_3D('',#462,#363,#364);
#311=AXIS2_PLACEMENT_3D('',#464,#366,#367);
#312=AXIS2_PLACEMENT_3D('',#467,#368,#369);
#313=AXIS2_PLACEMENT_3D('',#468,#370,#371);
#314=AXIS2_PLACEMENT_3D('',#471,#372,#373);
#315=AXIS2_PLACEMENT_3D('',#472,#374,#375);
#316=AXIS2_PLACEMENT_3D('',#473,#376,#377);
#317=AXIS2_PLACEMENT_3D('',#476,#378,#379);
#318=AXIS2_PLACEMENT_3D('',#477,#380,#381);
#319=AXIS2_PLACEMENT_3D('',#479,#383,#384);
#320=AXIS2_PLACEMENT_3D('',#482,#385,#386);
#321=AXIS2_PLACEMENT_3D('',#483,#387,#388);
#322=AXIS2_PLACEMENT_3D('',#485,#390,#391);
#323=AXIS2_PLACEMENT_3D('',#489,#393,#394);
#324=AXIS2_PLACEMENT_3D('',#490,#395,#396);
#325=AXIS2_PLACEMENT_3D('',#491,#397,#398);
#326=AXIS2_PLACEMENT_3D('',#494,#399,#400);
#327=AXIS2_PLACEMENT_3D('',#495,#401,#402);
#328=AXIS2_PLACEMENT_3D('',#496,#403,#404);
#329=AXIS2_PLACEMENT_3D('',#499,#405,#406);
#330=AXIS2_PLACEMENT_3D('',#500,#407,#408);
#331=AXIS2_PLACEMENT_3D('',#502,#410,#411);
#332=AXIS2_PLACEMENT_3D('',#505,#412,#413);
#333=AXIS2_PLACEMENT_3D('',#506,#414,#415);
#334=AXIS2_PLACEMENT_3D('',#507,#416,#417);
#335=AXIS2_PLACEMENT_3D('',#510,#418,#419);
#336=AXIS2_PLACEMENT_3D('',#512,#420,#421);
#337=AXIS2_PLACEMENT_3D('',#513,#422,#423);
#338=AXIS2_PLACEMENT_3D('',#514,#424,#425);
#339=AXIS2_PLACEMENT_3D('',#515,#426,#427);
#340=AXIS2_PLACEMENT_3D('',#518,#428,#429);
#341=AXIS2_PLACEMENT_3D('',#519,#430,#431);
#342=AXIS2_PLACEMENT_3D('',#521,#433,#434);
#343=AXIS2_PLACEMENT_3D('',#522,#435,#436);
#344=AXIS2_PLACEMENT_3D('',#525,#437,#438);
#345=AXIS2_PLACEMENT_3D('',#526,#439,#440);
#346=AXIS2_PLACEMENT_3D('',#527,#441,#442);
#347=AXIS2_PLACEMENT_3D('',#530,#443,#444);
#348=AXIS2_PLACEMENT_3D('',#531,#445,#446);
#349=AXIS2_PLACEMENT_3D('',#533,#448,#449);
#350=DIRECTION('axis',(0.,0.,1.));
#351=DIRECTION('refdir',(1.,0.,0.));
#352=DIRECTION('center_axis',(-9.1628197566679E-14,1.,0.));
#353=DIRECTION('ref_axis',(-1.,-9.16281975666793E-14,0.));
#354=DIRECTION('center_axis',(-9.16281975666793E-14,1.,0.));
#355=DIRECTION('ref_axis',(-1.,-9.16281975666793E-14,0.));
#356=DIRECTION('',(-0.707106781186508,-0.707106781186587,8.65956056235525E-17));
#357=DIRECTION('center_axis',(9.16281975666793E-14,-1.,0.));
#358=DIRECTION('ref_axis',(-1.,-9.16281975666793E-14,0.));
#359=DIRECTION('center_axis',(9.16281975666793E-14,-1.,0.));
#360=DIRECTION('ref_axis',(-1.,-9.16281975666793E-14,0.));
#361=DIRECTION('center_axis',(-9.16281975666793E-14,1.,0.));
#362=DIRECTION('ref_axis',(1.,9.16281975666793E-14,0.));
#363=DIRECTION('center_axis',(-9.16281975666793E-14,1.,0.));
#364=DIRECTION('ref_axis',(1.,9.16281975666793E-14,0.));
#365=DIRECTION('',(-9.16281975666793E-14,1.,0.));
#366=DIRECTION('center_axis',(-9.16281975666793E-14,1.,0.));
#367=DIRECTION('ref_axis',(0.,0.,1.));
#368=DIRECTION('center_axis',(9.16281975666793E-14,-1.,0.));
#369=DIRECTION('ref_axis',(1.,9.16281975666793E-14,0.));
#370=DIRECTION('center_axis',(9.16281975666793E-14,-1.,0.));
#371=DIRECTION('ref_axis',(1.,9.16281975666793E-14,0.));
#372=DIRECTION('center_axis',(9.16281975666793E-14,-1.,0.));
#373=DIRECTION('ref_axis',(1.,9.16281975666793E-14,0.));
#374=DIRECTION('center_axis',(9.16281975666793E-14,-1.,0.));
#375=DIRECTION('ref_axis',(1.,9.16281975666793E-14,0.));
#376=DIRECTION('center_axis',(9.16281975666793E-14,-1.,0.));
#377=DIRECTION('ref_axis',(1.,9.16281975666793E-14,0.));
#378=DIRECTION('center_axis',(9.16281975666793E-14,-1.,0.));
#379=DIRECTION('ref_axis',(1.,9.16281975666793E-14,0.));
#380=DIRECTION('center_axis',(9.16281975666793E-14,-1.,0.));
#381=DIRECTION('ref_axis',(1.,9.16281975666793E-14,0.));
#382=DIRECTION('',(0.707106781186416,0.707106781186679,8.65956056235412E-17));
#383=DIRECTION('center_axis',(9.16281975666793E-14,-1.,0.));
#384=DIRECTION('ref_axis',(1.,9.16281975666793E-14,0.));
#385=DIRECTION('center_axis',(9.16281975666793E-14,-1.,0.));
#386=DIRECTION('ref_axis',(1.,9.16281975666793E-14,0.));
#387=DIRECTION('center_axis',(9.16281975666793E-14,-1.,0.));
#388=DIRECTION('ref_axis',(1.,9.16281975666793E-14,0.));
#389=DIRECTION('',(-9.16281975666793E-14,1.,0.));
#390=DIRECTION('center_axis',(-9.16281975666793E-14,1.,0.));
#391=DIRECTION('ref_axis',(1.,9.16281975666793E-14,0.));
#392=DIRECTION('',(0.707106781186191,-0.707106781186904,-8.65956056234977E-17));
#393=DIRECTION('center_axis',(9.16281975666793E-14,-1.,0.));
#394=DIRECTION('ref_axis',(1.,9.16281975666793E-14,0.));
#395=DIRECTION('center_axis',(9.16281975666793E-14,-1.,0.));
#396=DIRECTION('ref_axis',(1.,9.16281975666793E-14,0.));
#397=DIRECTION('center_axis',(-9.16281975666793E-14,1.,0.));
#398=DIRECTION('ref_axis',(0.,0.,1.));
#399=DIRECTION('center_axis',(9.16281975666793E-14,-1.,0.));
#400=DIRECTION('ref_axis',(1.,9.16281975666793E-14,0.));
#401=DIRECTION('center_axis',(9.16281975666793E-14,-1.,0.));
#402=DIRECTION('ref_axis',(1.,9.16281975666793E-14,0.));
#403=DIRECTION('center_axis',(9.16281975666793E-14,-1.,0.));
#404=DIRECTION('ref_axis',(1.,9.16281975666793E-14,0.));
#405=DIRECTION('center_axis',(9.16281975666793E-14,-1.,0.));
#406=DIRECTION('ref_axis',(1.,9.16281975666793E-14,0.));
#407=DIRECTION('center_axis',(9.16281975666793E-14,-1.,0.));
#408=DIRECTION('ref_axis',(1.,9.16281975666793E-14,0.));
#409=DIRECTION('',(-9.16281975666793E-14,1.,0.));
#410=DIRECTION('center_axis',(9.16281975666793E-14,-1.,0.));
#411=DIRECTION('ref_axis',(0.,0.,-1.));
#412=DIRECTION('center_axis',(9.16281975666793E-14,-1.,0.));
#413=DIRECTION('ref_axis',(1.,9.16281975666793E-14,0.));
#414=DIRECTION('center_axis',(9.16281975666793E-14,-1.,0.));
#415=DIRECTION('ref_axis',(1.,9.16281975666793E-14,0.));
#416=DIRECTION('center_axis',(9.16281975666793E-14,-1.,0.));
#417=DIRECTION('ref_axis',(0.,0.,-1.));
#418=DIRECTION('center_axis',(9.16281975666793E-14,-1.,0.));
#419=DIRECTION('ref_axis',(1.,9.16281975666793E-14,0.));
#420=DIRECTION('center_axis',(9.16281975666793E-14,-1.,0.));
#421=DIRECTION('ref_axis',(1.,9.16281975666793E-14,0.));
#422=DIRECTION('center_axis',(9.16281975666793E-14,-1.,0.));
#423=DIRECTION('ref_axis',(1.,9.16281975666793E-14,0.));
#424=DIRECTION('center_axis',(1.,9.16281975666793E-14,1.22464679914735E-16));
#425=DIRECTION('ref_axis',(-1.22464679914735E-16,0.,1.));
#426=DIRECTION('center_axis',(9.16281975666793E-14,-1.,0.));
#427=DIRECTION('ref_axis',(1.,9.16281975666793E-14,0.));
#428=DIRECTION('center_axis',(9.16281975666793E-14,-1.,0.));
#429=DIRECTION('ref_axis',(1.,9.16281975666793E-14,0.));
#430=DIRECTION('center_axis',(9.16281975666793E-14,-1.,0.));
#431=DIRECTION('ref_axis',(1.,9.16281975666793E-14,0.));
#432=DIRECTION('',(-9.16281975666793E-14,1.,0.));
#433=DIRECTION('center_axis',(9.16281975666793E-14,-1.,0.));
#434=DIRECTION('ref_axis',(0.,0.,-1.));
#435=DIRECTION('center_axis',(-9.16281975666793E-14,1.,0.));
#436=DIRECTION('ref_axis',(0.,0.,1.));
#437=DIRECTION('center_axis',(9.16281975666793E-14,-1.,0.));
#438=DIRECTION('ref_axis',(1.,9.16281975666793E-14,0.));
#439=DIRECTION('center_axis',(9.16281975666793E-14,-1.,0.));
#440=DIRECTION('ref_axis',(1.,9.16281975666793E-14,0.));
#441=DIRECTION('center_axis',(9.16281975666793E-14,-1.,0.));
#442=DIRECTION('ref_axis',(1.,9.16281975666793E-14,0.));
#443=DIRECTION('center_axis',(9.16281975666793E-14,-1.,0.));
#444=DIRECTION('ref_axis',(1.,9.16281975666793E-14,0.));
#445=DIRECTION('center_axis',(9.16281975666793E-14,-1.,0.));
#446=DIRECTION('ref_axis',(1.,9.16281975666793E-14,0.));
#447=DIRECTION('',(0.707106781186418,0.707106781186677,8.65956056235414E-17));
#448=DIRECTION('center_axis',(9.16281975666793E-14,-1.,0.));
#449=DIRECTION('ref_axis',(1.,9.16281975666793E-14,0.));
#450=DIRECTION('',(-9.16281975666793E-14,1.,0.));
#451=CARTESIAN_POINT('',(0.,0.,0.));
#452=CARTESIAN_POINT('Origin',(-2.02498316622258E-12,22.0999999999896,-50.));
#453=CARTESIAN_POINT('',(5.08299999999794,22.49999999999,-50.));
#454=CARTESIAN_POINT('Origin',(-2.06163444524925E-12,22.4999999999896,-50.));
#455=CARTESIAN_POINT('',(4.28299999999801,21.69999999999,-50.));
#456=CARTESIAN_POINT('',(4.68299999999798,22.09999999999,-50.));
#457=CARTESIAN_POINT('',(-4.28300000000199,21.6999999999892,-50.));
#458=CARTESIAN_POINT('Origin',(-1.98833188719591E-12,21.6999999999896,-50.));
#459=CARTESIAN_POINT('Origin',(-1.98833188719591E-12,21.6999999999896,-50.));
#460=CARTESIAN_POINT('Origin',(2.20574762275622E-11,-240.728038020289,-50.));
#461=CARTESIAN_POINT('',(-4.283,-3.92443570178088E-13,-50.));
#462=CARTESIAN_POINT('Origin',(0.,0.,-50.));
#463=CARTESIAN_POINT('',(-4.28299999997794,-240.728038020289,-50.));
#464=CARTESIAN_POINT('Origin',(89.0000000000006,22.4999999999977,0.));
#465=CARTESIAN_POINT('',(89.0000000000006,22.4999999999977,0.));
#466=CARTESIAN_POINT('',(-89.0000000000046,22.4999999999815,-1.08993565124118E-14));
#467=CARTESIAN_POINT('Origin',(-2.06163444524933E-12,22.4999999999896,0.));
#468=CARTESIAN_POINT('Origin',(-2.06163444524933E-12,22.4999999999896,0.));
#469=CARTESIAN_POINT('',(6.99999999999329,22.4999999999977,0.));
#470=CARTESIAN_POINT('',(-7.00000000000304,22.4999999999965,-8.57252759403267E-16));
#471=CARTESIAN_POINT('Origin',(-2.06163444525002E-12,22.4999999999971,0.));
#472=CARTESIAN_POINT('Origin',(-2.06163444525002E-12,22.4999999999971,0.));
#473=CARTESIAN_POINT('Origin',(-2.01582034646599E-12,21.9999999999895,0.));
#474=CARTESIAN_POINT('',(90.0000000000006,21.4999999999977,0.));
#475=CARTESIAN_POINT('',(-90.0000000000045,21.4999999999812,-1.10218211923265E-14));
#476=CARTESIAN_POINT('Origin',(-1.97000624768264E-12,21.4999999999895,0.));
#477=CARTESIAN_POINT('Origin',(-1.97000624768264E-12,21.4999999999895,0.));
#478=CARTESIAN_POINT('',(-89.5000000000046,21.9999999999813,-1.09605888523691E-14));
#479=CARTESIAN_POINT('Origin',(-1.51186525984862E-12,16.4999999999827,0.));
#480=CARTESIAN_POINT('',(89.9999999999867,11.4999999999841,0.));
#481=CARTESIAN_POINT('',(-89.9999999999962,11.4999999999677,-1.10218211923256E-14));
#482=CARTESIAN_POINT('Origin',(-1.0537242720146E-12,11.4999999999759,0.));
#483=CARTESIAN_POINT('Origin',(-1.0537242720146E-12,11.4999999999759,0.));
#484=CARTESIAN_POINT('',(-89.9999999999967,16.4999999999745,-1.10218211923256E-14));
#485=CARTESIAN_POINT('Origin',(-1.03081722262354E-12,11.2499999999825,0.));
#486=CARTESIAN_POINT('',(-89.5000000000026,10.9999999999809,1.0960588852369E-14));
#487=CARTESIAN_POINT('',(-89.7499999999957,11.2499999999743,1.09912050223468E-14));
#488=CARTESIAN_POINT('',(89.5000000000006,10.9999999999973,0.));
#489=CARTESIAN_POINT('Origin',(-1.00791017323247E-12,10.9999999999891,0.));
#490=CARTESIAN_POINT('Origin',(-1.00791017323247E-12,10.9999999999891,0.));
#491=CARTESIAN_POINT('Origin',(89.999999999986,10.9999999999973,0.));
#492=CARTESIAN_POINT('',(89.999999999986,10.9999999999973,0.));
#493=CARTESIAN_POINT('',(-89.9999999999877,10.9999999999808,-1.10218211923246E-14));
#494=CARTESIAN_POINT('Origin',(-1.00791017323247E-12,10.999999999989,0.));
#495=CARTESIAN_POINT('Origin',(-1.00791017323247E-12,10.999999999989,0.));
#496=CARTESIAN_POINT('Origin',(-7.00955711384204E-13,7.64999999999025,0.));
#497=CARTESIAN_POINT('',(89.999999999986,4.29999999999973,0.));
#498=CARTESIAN_POINT('',(-89.9999999999871,4.29999999998323,-1.10218211923246E-14));
#499=CARTESIAN_POINT('Origin',(-3.9400124953594E-13,4.29999999999148,0.));
#500=CARTESIAN_POINT('Origin',(-3.9400124953594E-13,4.29999999999148,0.));
#501=CARTESIAN_POINT('',(-89.9999999999874,7.649999999982,-1.10218211923246E-14));
#502=CARTESIAN_POINT('Origin',(84.4999999999956,4.30000000000049,0.));
#503=CARTESIAN_POINT('',(84.4999999999956,4.30000000000049,0.));
#504=CARTESIAN_POINT('',(-4.04349514988852E-13,4.29999999999275,84.499999999996));
#505=CARTESIAN_POINT('Origin',(-3.94001249536056E-13,4.29999999999275,0.));
#506=CARTESIAN_POINT('Origin',(-3.94001249536056E-13,4.29999999999275,0.));
#507=CARTESIAN_POINT('Origin',(-6.87933186974899E-13,7.50787645336228,0.));
#508=CARTESIAN_POINT('',(88.4999999999933,1.5,0.));
#509=CARTESIAN_POINT('',(-1.4828042052173E-13,1.49999999999189,88.4999999999934));
#510=CARTESIAN_POINT('Origin',(-1.37442296349276E-13,1.49999999999189,0.));
#511=CARTESIAN_POINT('',(-88.4999999999935,1.49999999998378,-1.08381241724533E-14));
#512=CARTESIAN_POINT('Origin',(-1.37442296349276E-13,1.49999999999189,0.));
#513=CARTESIAN_POINT('Origin',(-1.37442296349276E-13,1.49999999999189,0.));
#514=CARTESIAN_POINT('Origin',(-6.98921393267987E-13,7.50787645336228,89.7255135173558));
#515=CARTESIAN_POINT('Origin',(-6.87211481742667E-14,0.749999999991893,
0.));
#516=CARTESIAN_POINT('',(88.4999999999933,0.,0.));
#517=CARTESIAN_POINT('',(-88.4999999999934,-1.62181379437243E-11,-1.08381241724533E-14));
#518=CARTESIAN_POINT('Origin',(7.4291764610094E-25,-8.10906897186214E-12,
0.));
#519=CARTESIAN_POINT('Origin',(7.4291764610094E-25,-8.10906897186214E-12,
0.));
#520=CARTESIAN_POINT('',(-88.4999999999935,0.749999999983784,-1.08381241724533E-14));
#521=CARTESIAN_POINT('Origin',(0.,0.,0.));
#522=CARTESIAN_POINT('Origin',(5.77300000000162,66.9999999999973,0.));
#523=CARTESIAN_POINT('',(5.77300000000162,66.9999999999973,0.));
#524=CARTESIAN_POINT('',(-5.77300000001391,66.9999999999962,-7.06988597148719E-16));
#525=CARTESIAN_POINT('Origin',(-6.13908923696722E-12,66.9999999999967,0.));
#526=CARTESIAN_POINT('Origin',(-6.13908923696722E-12,66.9999999999967,0.));
#527=CARTESIAN_POINT('Origin',(-6.0828753377601E-12,66.3864999999972,0.));
#528=CARTESIAN_POINT('',(7.00000000000057,65.7729999999983,0.));
#529=CARTESIAN_POINT('',(-7.00000000001261,65.772999999997,-8.57252759403954E-16));
#530=CARTESIAN_POINT('Origin',(-6.02666143855299E-12,65.7729999999977,0.));
#531=CARTESIAN_POINT('Origin',(-6.02666143855299E-12,65.7729999999977,0.));
#532=CARTESIAN_POINT('',(-6.38650000001326,66.3864999999966,-7.82120678276336E-16));
#533=CARTESIAN_POINT('Origin',(-4.0441479419015E-12,44.1364999999974,0.));
#534=CARTESIAN_POINT('',(-7.00000000000502,44.1364999999968,-8.57252759403267E-16));
#535=UNCERTAINTY_MEASURE_WITH_UNIT(LENGTH_MEASURE(0.01),#539,
'DISTANCE_ACCURACY_VALUE',
'Maximum model space distance between geometric entities at asserted c
onnectivities');
#536=UNCERTAINTY_MEASURE_WITH_UNIT(LENGTH_MEASURE(0.01),#539,
'DISTANCE_ACCURACY_VALUE',
'Maximum model space distance between geometric entities at asserted c
onnectivities');
#537=(
GEOMETRIC_REPRESENTATION_CONTEXT(3)
GLOBAL_UNCERTAINTY_ASSIGNED_CONTEXT((#535))
GLOBAL_UNIT_ASSIGNED_CONTEXT((#539,#542,#541))
REPRESENTATION_CONTEXT('','3D')
);
#538=(
GEOMETRIC_REPRESENTATION_CONTEXT(3)
GLOBAL_UNCERTAINTY_ASSIGNED_CONTEXT((#536))
GLOBAL_UNIT_ASSIGNED_CONTEXT((#539,#542,#541))
REPRESENTATION_CONTEXT('','3D')
);
#539=(
LENGTH_UNIT()
NAMED_UNIT(*)
SI_UNIT(.MILLI.,.METRE.)
);
#540=(
LENGTH_UNIT()
NAMED_UNIT(*)
SI_UNIT(.CENTI.,.METRE.)
);
#541=(
NAMED_UNIT(*)
SI_UNIT($,.STERADIAN.)
SOLID_ANGLE_UNIT()
);
#542=(
NAMED_UNIT(*)
PLANE_ANGLE_UNIT()
SI_UNIT($,.RADIAN.)
);
#543=SHAPE_DEFINITION_REPRESENTATION(#544,#545);
#544=PRODUCT_DEFINITION_SHAPE('',$,#547);
#545=SHAPE_REPRESENTATION('',(#304),#537);
#546=PRODUCT_DEFINITION_CONTEXT('part definition',#551,'design');
#547=PRODUCT_DEFINITION('3D_vml180nit','3D_vml180nit',#548,#546);
#548=PRODUCT_DEFINITION_FORMATION('',$,#553);
#549=PRODUCT_RELATED_PRODUCT_CATEGORY('3D_vml180nit','3D_vml180nit',(#553));
#550=APPLICATION_PROTOCOL_DEFINITION('international standard',
'automotive_design',2009,#551);
#551=APPLICATION_CONTEXT(
'Core Data for Automotive Mechanical Design Process');
#552=PRODUCT_CONTEXT('part definition',#551,'mechanical');
#553=PRODUCT('3D_vml180nit','3D_vml180nit',$,(#552));
#554=PRESENTATION_STYLE_ASSIGNMENT((#558));
#555=PRESENTATION_STYLE_ASSIGNMENT((#559));
#556=PRESENTATION_STYLE_ASSIGNMENT((#560));
#557=PRESENTATION_STYLE_ASSIGNMENT((#561));
#558=SURFACE_STYLE_USAGE(.BOTH.,#562);
#559=SURFACE_STYLE_USAGE(.BOTH.,#563);
#560=SURFACE_STYLE_USAGE(.BOTH.,#564);
#561=SURFACE_STYLE_USAGE(.BOTH.,#565);
#562=SURFACE_SIDE_STYLE('',(#566));
#563=SURFACE_SIDE_STYLE('',(#567));
#564=SURFACE_SIDE_STYLE('',(#568));
#565=SURFACE_SIDE_STYLE('',(#569));
#566=SURFACE_STYLE_FILL_AREA(#570);
#567=SURFACE_STYLE_FILL_AREA(#571);
#568=SURFACE_STYLE_FILL_AREA(#572);
#569=SURFACE_STYLE_FILL_AREA(#573);
#570=FILL_AREA_STYLE('',(#574));
#571=FILL_AREA_STYLE('',(#575));
#572=FILL_AREA_STYLE('',(#576));
#573=FILL_AREA_STYLE('',(#577));
#574=FILL_AREA_STYLE_COLOUR('',#578);
#575=FILL_AREA_STYLE_COLOUR('',#579);
#576=FILL_AREA_STYLE_COLOUR('',#580);
#577=FILL_AREA_STYLE_COLOUR('',#581);
#578=COLOUR_RGB('',0.749019607843137,0.749019607843137,0.749019607843137);
#579=COLOUR_RGB('',0.32156862745098,0.32156862745098,0.32156862745098);
#580=COLOUR_RGB('',0.,0.486274509803922,0.690196078431373);
#581=COLOUR_RGB('',0.,0.486274509803922,0.690196078431373);
ENDSEC;
END-ISO-10303-21;
