ISO-10303-21;
HEADER;
/* Generated by software containing ST-Developer
 * from STEP Tools, Inc. (www.steptools.com) 
 */

FILE_DESCRIPTION(
/* description */ (''),
/* implementation_level */ '2;1');

FILE_NAME(
/* name */ 
'Z:\\14-ALMACEN-3D\\WEB-2020\\grandes-cargas\\vml\\3D_vml180sb.stp',
/* time_stamp */ '2020-04-17T08:35:00+02:00',
/* author */ ('lmacia'),
/* organization */ (''),
/* preprocessor_version */ 'ST-DEVELOPER v17',
/* originating_system */ 'Autodesk Inventor 2019',
/* authorisation */ '');

FILE_SCHEMA (('AUTOMOTIVE_DESIGN { 1 0 10303 214 3 1 1 }'));
ENDSEC;

DATA;
#10=MECHANICAL_DESIGN_GEOMETRIC_PRESENTATION_REPRESENTATION('',(#263,#264,
#265,#266,#267,#268,#269,#270,#271,#272,#273,#274,#275),#544);
#11=SHAPE_REPRESENTATION_RELATIONSHIP('SRR','None',#551,#12);
#12=ADVANCED_BREP_SHAPE_REPRESENTATION('',(#13),#543);
#13=MANIFOLD_SOLID_BREP('S\X\F3lido2',#291);
#14=TOROIDAL_SURFACE('',#340,89.7255135173558,6.13159545796952);
#15=FACE_BOUND('',#48,.T.);
#16=FACE_BOUND('',#49,.T.);
#17=FACE_BOUND('',#54,.T.);
#18=FACE_BOUND('',#57,.T.);
#19=FACE_BOUND('',#61,.T.);
#20=PLANE('',#317);
#21=PLANE('',#331);
#22=PLANE('',#337);
#23=PLANE('',#348);
#24=PLANE('',#349);
#25=CYLINDRICAL_SURFACE('',#315,4.283);
#26=CYLINDRICAL_SURFACE('',#325,89.9999999999952);
#27=CYLINDRICAL_SURFACE('',#334,89.9999999999867);
#28=CYLINDRICAL_SURFACE('',#345,88.4999999999934);
#29=CYLINDRICAL_SURFACE('',#355,7.00000000000098);
#30=FACE_OUTER_BOUND('',#45,.T.);
#31=FACE_OUTER_BOUND('',#46,.T.);
#32=FACE_OUTER_BOUND('',#47,.T.);
#33=FACE_OUTER_BOUND('',#50,.T.);
#34=FACE_OUTER_BOUND('',#51,.T.);
#35=FACE_OUTER_BOUND('',#52,.T.);
#36=FACE_OUTER_BOUND('',#53,.T.);
#37=FACE_OUTER_BOUND('',#55,.T.);
#38=FACE_OUTER_BOUND('',#56,.T.);
#39=FACE_OUTER_BOUND('',#58,.T.);
#40=FACE_OUTER_BOUND('',#59,.T.);
#41=FACE_OUTER_BOUND('',#60,.T.);
#42=FACE_OUTER_BOUND('',#62,.T.);
#43=FACE_OUTER_BOUND('',#63,.T.);
#44=FACE_OUTER_BOUND('',#64,.T.);
#45=EDGE_LOOP('',(#181,#182,#183,#184,#185));
#46=EDGE_LOOP('',(#186,#187,#188,#189,#190));
#47=EDGE_LOOP('',(#191,#192));
#48=EDGE_LOOP('',(#193,#194));
#49=EDGE_LOOP('',(#195));
#50=EDGE_LOOP('',(#196,#197,#198,#199,#200,#201));
#51=EDGE_LOOP('',(#202,#203,#204,#205,#206,#207));
#52=EDGE_LOOP('',(#208,#209,#210,#211,#212,#213));
#53=EDGE_LOOP('',(#214,#215));
#54=EDGE_LOOP('',(#216,#217));
#55=EDGE_LOOP('',(#218,#219,#220,#221,#222,#223));
#56=EDGE_LOOP('',(#224,#225));
#57=EDGE_LOOP('',(#226,#227));
#58=EDGE_LOOP('',(#228,#229,#230,#231,#232,#233,#234));
#59=EDGE_LOOP('',(#235,#236,#237,#238,#239,#240,#241));
#60=EDGE_LOOP('',(#242,#243));
#61=EDGE_LOOP('',(#244));
#62=EDGE_LOOP('',(#245,#246));
#63=EDGE_LOOP('',(#247,#248,#249,#250,#251,#252));
#64=EDGE_LOOP('',(#253,#254,#255,#256,#257,#258));
#65=LINE('',#462,#74);
#66=LINE('',#469,#75);
#67=LINE('',#484,#76);
#68=LINE('',#490,#77);
#69=LINE('',#493,#78);
#70=LINE('',#507,#79);
#71=LINE('',#526,#80);
#72=LINE('',#538,#81);
#73=LINE('',#540,#82);
#74=VECTOR('',#362,4.683);
#75=VECTOR('',#371,4.283);
#76=VECTOR('',#388,89.5000000000026);
#77=VECTOR('',#395,89.9999999999952);
#78=VECTOR('',#398,89.7499999999947);
#79=VECTOR('',#415,89.9999999999867);
#80=VECTOR('',#438,88.4999999999934);
#81=VECTOR('',#453,6.38650000000718);
#82=VECTOR('',#456,7.00000000000098);
#83=CIRCLE('',#312,5.083);
#84=CIRCLE('',#313,4.283);
#85=CIRCLE('',#314,4.283);
#86=CIRCLE('',#316,4.283);
#87=CIRCLE('',#318,89.0000000000026);
#88=CIRCLE('',#319,89.0000000000026);
#89=CIRCLE('',#320,6.99999999999535);
#90=CIRCLE('',#321,6.99999999999535);
#91=CIRCLE('',#323,90.0000000000025);
#92=CIRCLE('',#324,90.0000000000025);
#93=CIRCLE('',#326,89.9999999999878);
#94=CIRCLE('',#327,89.9999999999878);
#95=CIRCLE('',#329,89.5000000000016);
#96=CIRCLE('',#330,89.5000000000016);
#97=CIRCLE('',#332,89.999999999987);
#98=CIRCLE('',#333,89.999999999987);
#99=CIRCLE('',#335,89.9999999999864);
#100=CIRCLE('',#336,89.9999999999864);
#101=CIRCLE('',#338,84.499999999996);
#102=CIRCLE('',#339,84.499999999996);
#103=CIRCLE('',#341,88.4999999999934);
#104=CIRCLE('',#342,88.4999999999934);
#105=CIRCLE('',#343,88.4999999999934);
#106=CIRCLE('',#344,6.13159545796952);
#107=CIRCLE('',#346,88.4999999999933);
#108=CIRCLE('',#347,88.4999999999933);
#109=CIRCLE('',#350,5.77300000000776);
#110=CIRCLE('',#351,5.77300000000776);
#111=CIRCLE('',#353,7.0000000000066);
#112=CIRCLE('',#354,7.0000000000066);
#113=VERTEX_POINT('',#459);
#114=VERTEX_POINT('',#461);
#115=VERTEX_POINT('',#463);
#116=VERTEX_POINT('',#467);
#117=VERTEX_POINT('',#471);
#118=VERTEX_POINT('',#472);
#119=VERTEX_POINT('',#475);
#120=VERTEX_POINT('',#476);
#121=VERTEX_POINT('',#480);
#122=VERTEX_POINT('',#481);
#123=VERTEX_POINT('',#486);
#124=VERTEX_POINT('',#487);
#125=VERTEX_POINT('',#492);
#126=VERTEX_POINT('',#494);
#127=VERTEX_POINT('',#498);
#128=VERTEX_POINT('',#499);
#129=VERTEX_POINT('',#503);
#130=VERTEX_POINT('',#504);
#131=VERTEX_POINT('',#509);
#132=VERTEX_POINT('',#510);
#133=VERTEX_POINT('',#514);
#134=VERTEX_POINT('',#515);
#135=VERTEX_POINT('',#517);
#136=VERTEX_POINT('',#522);
#137=VERTEX_POINT('',#523);
#138=VERTEX_POINT('',#529);
#139=VERTEX_POINT('',#530);
#140=VERTEX_POINT('',#534);
#141=VERTEX_POINT('',#535);
#142=EDGE_CURVE('',#113,#113,#83,.T.);
#143=EDGE_CURVE('',#113,#114,#65,.T.);
#144=EDGE_CURVE('',#114,#115,#84,.T.);
#145=EDGE_CURVE('',#115,#114,#85,.T.);
#146=EDGE_CURVE('',#116,#116,#86,.T.);
#147=EDGE_CURVE('',#116,#115,#66,.T.);
#148=EDGE_CURVE('',#117,#118,#87,.T.);
#149=EDGE_CURVE('',#118,#117,#88,.T.);
#150=EDGE_CURVE('',#119,#120,#89,.T.);
#151=EDGE_CURVE('',#120,#119,#90,.T.);
#152=EDGE_CURVE('',#121,#122,#91,.T.);
#153=EDGE_CURVE('',#122,#121,#92,.T.);
#154=EDGE_CURVE('',#122,#118,#67,.T.);
#155=EDGE_CURVE('',#123,#124,#93,.T.);
#156=EDGE_CURVE('',#124,#123,#94,.T.);
#157=EDGE_CURVE('',#124,#122,#68,.T.);
#158=EDGE_CURVE('',#124,#125,#69,.T.);
#159=EDGE_CURVE('',#126,#125,#95,.T.);
#160=EDGE_CURVE('',#125,#126,#96,.T.);
#161=EDGE_CURVE('',#127,#128,#97,.T.);
#162=EDGE_CURVE('',#128,#127,#98,.T.);
#163=EDGE_CURVE('',#129,#130,#99,.T.);
#164=EDGE_CURVE('',#130,#129,#100,.T.);
#165=EDGE_CURVE('',#130,#128,#70,.T.);
#166=EDGE_CURVE('',#131,#132,#101,.T.);
#167=EDGE_CURVE('',#132,#131,#102,.T.);
#168=EDGE_CURVE('',#133,#134,#103,.T.);
#169=EDGE_CURVE('',#135,#133,#104,.T.);
#170=EDGE_CURVE('',#134,#135,#105,.T.);
#171=EDGE_CURVE('',#134,#132,#106,.T.);
#172=EDGE_CURVE('',#136,#137,#107,.T.);
#173=EDGE_CURVE('',#137,#136,#108,.T.);
#174=EDGE_CURVE('',#137,#135,#71,.T.);
#175=EDGE_CURVE('',#138,#139,#109,.T.);
#176=EDGE_CURVE('',#139,#138,#110,.T.);
#177=EDGE_CURVE('',#140,#141,#111,.T.);
#178=EDGE_CURVE('',#141,#140,#112,.T.);
#179=EDGE_CURVE('',#141,#139,#72,.T.);
#180=EDGE_CURVE('',#120,#141,#73,.T.);
#181=ORIENTED_EDGE('',*,*,#142,.T.);
#182=ORIENTED_EDGE('',*,*,#143,.T.);
#183=ORIENTED_EDGE('',*,*,#144,.T.);
#184=ORIENTED_EDGE('',*,*,#145,.T.);
#185=ORIENTED_EDGE('',*,*,#143,.F.);
#186=ORIENTED_EDGE('',*,*,#146,.F.);
#187=ORIENTED_EDGE('',*,*,#147,.T.);
#188=ORIENTED_EDGE('',*,*,#144,.F.);
#189=ORIENTED_EDGE('',*,*,#145,.F.);
#190=ORIENTED_EDGE('',*,*,#147,.F.);
#191=ORIENTED_EDGE('',*,*,#148,.F.);
#192=ORIENTED_EDGE('',*,*,#149,.F.);
#193=ORIENTED_EDGE('',*,*,#150,.T.);
#194=ORIENTED_EDGE('',*,*,#151,.T.);
#195=ORIENTED_EDGE('',*,*,#142,.F.);
#196=ORIENTED_EDGE('',*,*,#152,.F.);
#197=ORIENTED_EDGE('',*,*,#153,.F.);
#198=ORIENTED_EDGE('',*,*,#154,.T.);
#199=ORIENTED_EDGE('',*,*,#149,.T.);
#200=ORIENTED_EDGE('',*,*,#148,.T.);
#201=ORIENTED_EDGE('',*,*,#154,.F.);
#202=ORIENTED_EDGE('',*,*,#155,.F.);
#203=ORIENTED_EDGE('',*,*,#156,.F.);
#204=ORIENTED_EDGE('',*,*,#157,.T.);
#205=ORIENTED_EDGE('',*,*,#153,.T.);
#206=ORIENTED_EDGE('',*,*,#152,.T.);
#207=ORIENTED_EDGE('',*,*,#157,.F.);
#208=ORIENTED_EDGE('',*,*,#155,.T.);
#209=ORIENTED_EDGE('',*,*,#158,.T.);
#210=ORIENTED_EDGE('',*,*,#159,.F.);
#211=ORIENTED_EDGE('',*,*,#160,.F.);
#212=ORIENTED_EDGE('',*,*,#158,.F.);
#213=ORIENTED_EDGE('',*,*,#156,.T.);
#214=ORIENTED_EDGE('',*,*,#161,.F.);
#215=ORIENTED_EDGE('',*,*,#162,.F.);
#216=ORIENTED_EDGE('',*,*,#159,.T.);
#217=ORIENTED_EDGE('',*,*,#160,.T.);
#218=ORIENTED_EDGE('',*,*,#163,.F.);
#219=ORIENTED_EDGE('',*,*,#164,.F.);
#220=ORIENTED_EDGE('',*,*,#165,.T.);
#221=ORIENTED_EDGE('',*,*,#162,.T.);
#222=ORIENTED_EDGE('',*,*,#161,.T.);
#223=ORIENTED_EDGE('',*,*,#165,.F.);
#224=ORIENTED_EDGE('',*,*,#163,.T.);
#225=ORIENTED_EDGE('',*,*,#164,.T.);
#226=ORIENTED_EDGE('',*,*,#166,.F.);
#227=ORIENTED_EDGE('',*,*,#167,.F.);
#228=ORIENTED_EDGE('',*,*,#168,.F.);
#229=ORIENTED_EDGE('',*,*,#169,.F.);
#230=ORIENTED_EDGE('',*,*,#170,.F.);
#231=ORIENTED_EDGE('',*,*,#171,.T.);
#232=ORIENTED_EDGE('',*,*,#167,.T.);
#233=ORIENTED_EDGE('',*,*,#166,.T.);
#234=ORIENTED_EDGE('',*,*,#171,.F.);
#235=ORIENTED_EDGE('',*,*,#172,.F.);
#236=ORIENTED_EDGE('',*,*,#173,.F.);
#237=ORIENTED_EDGE('',*,*,#174,.T.);
#238=ORIENTED_EDGE('',*,*,#169,.T.);
#239=ORIENTED_EDGE('',*,*,#168,.T.);
#240=ORIENTED_EDGE('',*,*,#170,.T.);
#241=ORIENTED_EDGE('',*,*,#174,.F.);
#242=ORIENTED_EDGE('',*,*,#172,.T.);
#243=ORIENTED_EDGE('',*,*,#173,.T.);
#244=ORIENTED_EDGE('',*,*,#146,.T.);
#245=ORIENTED_EDGE('',*,*,#175,.F.);
#246=ORIENTED_EDGE('',*,*,#176,.F.);
#247=ORIENTED_EDGE('',*,*,#177,.F.);
#248=ORIENTED_EDGE('',*,*,#178,.F.);
#249=ORIENTED_EDGE('',*,*,#179,.T.);
#250=ORIENTED_EDGE('',*,*,#176,.T.);
#251=ORIENTED_EDGE('',*,*,#175,.T.);
#252=ORIENTED_EDGE('',*,*,#179,.F.);
#253=ORIENTED_EDGE('',*,*,#150,.F.);
#254=ORIENTED_EDGE('',*,*,#151,.F.);
#255=ORIENTED_EDGE('',*,*,#180,.T.);
#256=ORIENTED_EDGE('',*,*,#178,.T.);
#257=ORIENTED_EDGE('',*,*,#177,.T.);
#258=ORIENTED_EDGE('',*,*,#180,.F.);
#259=CONICAL_SURFACE('',#311,4.683,0.785398163397485);
#260=CONICAL_SURFACE('',#322,89.5000000000026,0.785398163397354);
#261=CONICAL_SURFACE('',#328,89.7499999999947,0.785398163396852);
#262=CONICAL_SURFACE('',#352,6.38650000000718,0.785398163397357);
#263=STYLED_ITEM('',(#562),#276);
#264=STYLED_ITEM('',(#562),#277);
#265=STYLED_ITEM('',(#563),#278);
#266=STYLED_ITEM('',(#563),#279);
#267=STYLED_ITEM('',(#563),#280);
#268=STYLED_ITEM('',(#563),#281);
#269=STYLED_ITEM('',(#564),#282);
#270=STYLED_ITEM('',(#564),#283);
#271=STYLED_ITEM('',(#564),#284);
#272=STYLED_ITEM('',(#564),#285);
#273=STYLED_ITEM('',(#564),#286);
#274=STYLED_ITEM('',(#564),#287);
#275=STYLED_ITEM('',(#561),#13);
#276=ADVANCED_FACE('',(#30),#259,.F.);
#277=ADVANCED_FACE('',(#31),#25,.F.);
#278=ADVANCED_FACE('',(#32,#15,#16),#20,.T.);
#279=ADVANCED_FACE('',(#33),#260,.T.);
#280=ADVANCED_FACE('',(#34),#26,.T.);
#281=ADVANCED_FACE('',(#35),#261,.T.);
#282=ADVANCED_FACE('',(#36,#17),#21,.T.);
#283=ADVANCED_FACE('',(#37),#27,.T.);
#284=ADVANCED_FACE('',(#38,#18),#22,.T.);
#285=ADVANCED_FACE('',(#39),#14,.F.);
#286=ADVANCED_FACE('',(#40),#28,.T.);
#287=ADVANCED_FACE('',(#41,#19),#23,.T.);
#288=ADVANCED_FACE('',(#42),#24,.T.);
#289=ADVANCED_FACE('',(#43),#262,.T.);
#290=ADVANCED_FACE('',(#44),#29,.T.);
#291=CLOSED_SHELL('',(#276,#277,#278,#279,#280,#281,#282,#283,#284,#285,
#286,#287,#288,#289,#290));
#292=DERIVED_UNIT_ELEMENT(#294,1.);
#293=DERIVED_UNIT_ELEMENT(#546,3.);
#294=(
MASS_UNIT()
NAMED_UNIT(*)
SI_UNIT($,.GRAM.)
);
#295=DERIVED_UNIT((#292,#293));
#296=MEASURE_REPRESENTATION_ITEM('density measure',
POSITIVE_RATIO_MEASURE(1.),#295);
#297=PROPERTY_DEFINITION_REPRESENTATION(#302,#299);
#298=PROPERTY_DEFINITION_REPRESENTATION(#303,#300);
#299=REPRESENTATION('material name',(#301),#543);
#300=REPRESENTATION('density',(#296),#543);
#301=DESCRIPTIVE_REPRESENTATION_ITEM('Gen\X\E9rico','Gen\X\E9rico');
#302=PROPERTY_DEFINITION('material property','material name',#553);
#303=PROPERTY_DEFINITION('material property','density of part',#553);
#304=DATE_TIME_ROLE('creation_date');
#305=APPLIED_DATE_AND_TIME_ASSIGNMENT(#306,#304,(#553));
#306=DATE_AND_TIME(#307,#308);
#307=CALENDAR_DATE(2020,16,4);
#308=LOCAL_TIME(12,20,59.,#309);
#309=COORDINATED_UNIVERSAL_TIME_OFFSET(0,0,.BEHIND.);
#310=AXIS2_PLACEMENT_3D('placement',#457,#356,#357);
#311=AXIS2_PLACEMENT_3D('',#458,#358,#359);
#312=AXIS2_PLACEMENT_3D('',#460,#360,#361);
#313=AXIS2_PLACEMENT_3D('',#464,#363,#364);
#314=AXIS2_PLACEMENT_3D('',#465,#365,#366);
#315=AXIS2_PLACEMENT_3D('',#466,#367,#368);
#316=AXIS2_PLACEMENT_3D('',#468,#369,#370);
#317=AXIS2_PLACEMENT_3D('',#470,#372,#373);
#318=AXIS2_PLACEMENT_3D('',#473,#374,#375);
#319=AXIS2_PLACEMENT_3D('',#474,#376,#377);
#320=AXIS2_PLACEMENT_3D('',#477,#378,#379);
#321=AXIS2_PLACEMENT_3D('',#478,#380,#381);
#322=AXIS2_PLACEMENT_3D('',#479,#382,#383);
#323=AXIS2_PLACEMENT_3D('',#482,#384,#385);
#324=AXIS2_PLACEMENT_3D('',#483,#386,#387);
#325=AXIS2_PLACEMENT_3D('',#485,#389,#390);
#326=AXIS2_PLACEMENT_3D('',#488,#391,#392);
#327=AXIS2_PLACEMENT_3D('',#489,#393,#394);
#328=AXIS2_PLACEMENT_3D('',#491,#396,#397);
#329=AXIS2_PLACEMENT_3D('',#495,#399,#400);
#330=AXIS2_PLACEMENT_3D('',#496,#401,#402);
#331=AXIS2_PLACEMENT_3D('',#497,#403,#404);
#332=AXIS2_PLACEMENT_3D('',#500,#405,#406);
#333=AXIS2_PLACEMENT_3D('',#501,#407,#408);
#334=AXIS2_PLACEMENT_3D('',#502,#409,#410);
#335=AXIS2_PLACEMENT_3D('',#505,#411,#412);
#336=AXIS2_PLACEMENT_3D('',#506,#413,#414);
#337=AXIS2_PLACEMENT_3D('',#508,#416,#417);
#338=AXIS2_PLACEMENT_3D('',#511,#418,#419);
#339=AXIS2_PLACEMENT_3D('',#512,#420,#421);
#340=AXIS2_PLACEMENT_3D('',#513,#422,#423);
#341=AXIS2_PLACEMENT_3D('',#516,#424,#425);
#342=AXIS2_PLACEMENT_3D('',#518,#426,#427);
#343=AXIS2_PLACEMENT_3D('',#519,#428,#429);
#344=AXIS2_PLACEMENT_3D('',#520,#430,#431);
#345=AXIS2_PLACEMENT_3D('',#521,#432,#433);
#346=AXIS2_PLACEMENT_3D('',#524,#434,#435);
#347=AXIS2_PLACEMENT_3D('',#525,#436,#437);
#348=AXIS2_PLACEMENT_3D('',#527,#439,#440);
#349=AXIS2_PLACEMENT_3D('',#528,#441,#442);
#350=AXIS2_PLACEMENT_3D('',#531,#443,#444);
#351=AXIS2_PLACEMENT_3D('',#532,#445,#446);
#352=AXIS2_PLACEMENT_3D('',#533,#447,#448);
#353=AXIS2_PLACEMENT_3D('',#536,#449,#450);
#354=AXIS2_PLACEMENT_3D('',#537,#451,#452);
#355=AXIS2_PLACEMENT_3D('',#539,#454,#455);
#356=DIRECTION('axis',(0.,0.,1.));
#357=DIRECTION('refdir',(1.,0.,0.));
#358=DIRECTION('center_axis',(-9.1628197566679E-14,1.,0.));
#359=DIRECTION('ref_axis',(-1.,-9.16281975666793E-14,0.));
#360=DIRECTION('center_axis',(-9.16281975666793E-14,1.,0.));
#361=DIRECTION('ref_axis',(-1.,-9.16281975666793E-14,0.));
#362=DIRECTION('',(-0.707106781186508,-0.707106781186587,8.65956056235525E-17));
#363=DIRECTION('center_axis',(9.16281975666793E-14,-1.,0.));
#364=DIRECTION('ref_axis',(-1.,-9.16281975666793E-14,0.));
#365=DIRECTION('center_axis',(9.16281975666793E-14,-1.,0.));
#366=DIRECTION('ref_axis',(-1.,-9.16281975666793E-14,0.));
#367=DIRECTION('center_axis',(-9.16281975666793E-14,1.,0.));
#368=DIRECTION('ref_axis',(1.,9.16281975666793E-14,0.));
#369=DIRECTION('center_axis',(-9.16281975666793E-14,1.,0.));
#370=DIRECTION('ref_axis',(1.,9.16281975666793E-14,0.));
#371=DIRECTION('',(-9.16281975666793E-14,1.,0.));
#372=DIRECTION('center_axis',(-9.16281975666793E-14,1.,0.));
#373=DIRECTION('ref_axis',(0.,0.,1.));
#374=DIRECTION('center_axis',(9.16281975666793E-14,-1.,0.));
#375=DIRECTION('ref_axis',(1.,9.16281975666793E-14,0.));
#376=DIRECTION('center_axis',(9.16281975666793E-14,-1.,0.));
#377=DIRECTION('ref_axis',(1.,9.16281975666793E-14,0.));
#378=DIRECTION('center_axis',(9.16281975666793E-14,-1.,0.));
#379=DIRECTION('ref_axis',(1.,9.16281975666793E-14,0.));
#380=DIRECTION('center_axis',(9.16281975666793E-14,-1.,0.));
#381=DIRECTION('ref_axis',(1.,9.16281975666793E-14,0.));
#382=DIRECTION('center_axis',(9.16281975666793E-14,-1.,0.));
#383=DIRECTION('ref_axis',(1.,9.16281975666793E-14,0.));
#384=DIRECTION('center_axis',(9.16281975666793E-14,-1.,0.));
#385=DIRECTION('ref_axis',(1.,9.16281975666793E-14,0.));
#386=DIRECTION('center_axis',(9.16281975666793E-14,-1.,0.));
#387=DIRECTION('ref_axis',(1.,9.16281975666793E-14,0.));
#388=DIRECTION('',(0.707106781186416,0.707106781186679,8.65956056235412E-17));
#389=DIRECTION('center_axis',(9.16281975666793E-14,-1.,0.));
#390=DIRECTION('ref_axis',(1.,9.16281975666793E-14,0.));
#391=DIRECTION('center_axis',(9.16281975666793E-14,-1.,0.));
#392=DIRECTION('ref_axis',(1.,9.16281975666793E-14,0.));
#393=DIRECTION('center_axis',(9.16281975666793E-14,-1.,0.));
#394=DIRECTION('ref_axis',(1.,9.16281975666793E-14,0.));
#395=DIRECTION('',(-9.16281975666793E-14,1.,0.));
#396=DIRECTION('center_axis',(-9.16281975666793E-14,1.,0.));
#397=DIRECTION('ref_axis',(1.,9.16281975666793E-14,0.));
#398=DIRECTION('',(0.707106781186191,-0.707106781186904,-8.65956056234977E-17));
#399=DIRECTION('center_axis',(9.16281975666793E-14,-1.,0.));
#400=DIRECTION('ref_axis',(1.,9.16281975666793E-14,0.));
#401=DIRECTION('center_axis',(9.16281975666793E-14,-1.,0.));
#402=DIRECTION('ref_axis',(1.,9.16281975666793E-14,0.));
#403=DIRECTION('center_axis',(-9.16281975666793E-14,1.,0.));
#404=DIRECTION('ref_axis',(0.,0.,1.));
#405=DIRECTION('center_axis',(9.16281975666793E-14,-1.,0.));
#406=DIRECTION('ref_axis',(1.,9.16281975666793E-14,0.));
#407=DIRECTION('center_axis',(9.16281975666793E-14,-1.,0.));
#408=DIRECTION('ref_axis',(1.,9.16281975666793E-14,0.));
#409=DIRECTION('center_axis',(9.16281975666793E-14,-1.,0.));
#410=DIRECTION('ref_axis',(1.,9.16281975666793E-14,0.));
#411=DIRECTION('center_axis',(9.16281975666793E-14,-1.,0.));
#412=DIRECTION('ref_axis',(1.,9.16281975666793E-14,0.));
#413=DIRECTION('center_axis',(9.16281975666793E-14,-1.,0.));
#414=DIRECTION('ref_axis',(1.,9.16281975666793E-14,0.));
#415=DIRECTION('',(-9.16281975666793E-14,1.,0.));
#416=DIRECTION('center_axis',(9.16281975666793E-14,-1.,0.));
#417=DIRECTION('ref_axis',(0.,0.,-1.));
#418=DIRECTION('center_axis',(9.16281975666793E-14,-1.,0.));
#419=DIRECTION('ref_axis',(1.,9.16281975666793E-14,0.));
#420=DIRECTION('center_axis',(9.16281975666793E-14,-1.,0.));
#421=DIRECTION('ref_axis',(1.,9.16281975666793E-14,0.));
#422=DIRECTION('center_axis',(9.16281975666793E-14,-1.,0.));
#423=DIRECTION('ref_axis',(0.,0.,-1.));
#424=DIRECTION('center_axis',(9.16281975666793E-14,-1.,0.));
#425=DIRECTION('ref_axis',(1.,9.16281975666793E-14,0.));
#426=DIRECTION('center_axis',(9.16281975666793E-14,-1.,0.));
#427=DIRECTION('ref_axis',(1.,9.16281975666793E-14,0.));
#428=DIRECTION('center_axis',(9.16281975666793E-14,-1.,0.));
#429=DIRECTION('ref_axis',(1.,9.16281975666793E-14,0.));
#430=DIRECTION('center_axis',(1.,9.16281975666793E-14,1.22464679914735E-16));
#431=DIRECTION('ref_axis',(-1.22464679914735E-16,0.,1.));
#432=DIRECTION('center_axis',(9.16281975666793E-14,-1.,0.));
#433=DIRECTION('ref_axis',(1.,9.16281975666793E-14,0.));
#434=DIRECTION('center_axis',(9.16281975666793E-14,-1.,0.));
#435=DIRECTION('ref_axis',(1.,9.16281975666793E-14,0.));
#436=DIRECTION('center_axis',(9.16281975666793E-14,-1.,0.));
#437=DIRECTION('ref_axis',(1.,9.16281975666793E-14,0.));
#438=DIRECTION('',(-9.16281975666793E-14,1.,0.));
#439=DIRECTION('center_axis',(9.16281975666793E-14,-1.,0.));
#440=DIRECTION('ref_axis',(0.,0.,-1.));
#441=DIRECTION('center_axis',(-9.16281975666793E-14,1.,0.));
#442=DIRECTION('ref_axis',(0.,0.,1.));
#443=DIRECTION('center_axis',(9.16281975666793E-14,-1.,0.));
#444=DIRECTION('ref_axis',(1.,9.16281975666793E-14,0.));
#445=DIRECTION('center_axis',(9.16281975666793E-14,-1.,0.));
#446=DIRECTION('ref_axis',(1.,9.16281975666793E-14,0.));
#447=DIRECTION('center_axis',(9.16281975666793E-14,-1.,0.));
#448=DIRECTION('ref_axis',(1.,9.16281975666793E-14,0.));
#449=DIRECTION('center_axis',(9.16281975666793E-14,-1.,0.));
#450=DIRECTION('ref_axis',(1.,9.16281975666793E-14,0.));
#451=DIRECTION('center_axis',(9.16281975666793E-14,-1.,0.));
#452=DIRECTION('ref_axis',(1.,9.16281975666793E-14,0.));
#453=DIRECTION('',(0.707106781186418,0.707106781186677,8.65956056235414E-17));
#454=DIRECTION('center_axis',(9.16281975666793E-14,-1.,0.));
#455=DIRECTION('ref_axis',(1.,9.16281975666793E-14,0.));
#456=DIRECTION('',(-9.16281975666793E-14,1.,0.));
#457=CARTESIAN_POINT('',(0.,0.,0.));
#458=CARTESIAN_POINT('Origin',(-2.02498316622258E-12,22.0999999999896,-50.));
#459=CARTESIAN_POINT('',(5.08299999999794,22.49999999999,-50.));
#460=CARTESIAN_POINT('Origin',(-2.06163444524925E-12,22.4999999999896,-50.));
#461=CARTESIAN_POINT('',(4.28299999999801,21.69999999999,-50.));
#462=CARTESIAN_POINT('',(4.68299999999798,22.09999999999,-50.));
#463=CARTESIAN_POINT('',(-4.28300000000199,21.6999999999892,-50.));
#464=CARTESIAN_POINT('Origin',(-1.98833188719591E-12,21.6999999999896,-50.));
#465=CARTESIAN_POINT('Origin',(-1.98833188719591E-12,21.6999999999896,-50.));
#466=CARTESIAN_POINT('Origin',(2.20574762275622E-11,-240.728038020289,-50.));
#467=CARTESIAN_POINT('',(-4.283,-3.92443570178088E-13,-50.));
#468=CARTESIAN_POINT('Origin',(0.,0.,-50.));
#469=CARTESIAN_POINT('',(-4.28299999997794,-240.728038020289,-50.));
#470=CARTESIAN_POINT('Origin',(89.0000000000006,22.4999999999977,0.));
#471=CARTESIAN_POINT('',(89.0000000000006,22.4999999999977,0.));
#472=CARTESIAN_POINT('',(-89.0000000000046,22.4999999999815,-1.08993565124118E-14));
#473=CARTESIAN_POINT('Origin',(-2.06163444524933E-12,22.4999999999896,0.));
#474=CARTESIAN_POINT('Origin',(-2.06163444524933E-12,22.4999999999896,0.));
#475=CARTESIAN_POINT('',(6.99999999999329,22.4999999999977,0.));
#476=CARTESIAN_POINT('',(-7.00000000000304,22.4999999999965,-8.57252759403267E-16));
#477=CARTESIAN_POINT('Origin',(-2.06163444525002E-12,22.4999999999971,0.));
#478=CARTESIAN_POINT('Origin',(-2.06163444525002E-12,22.4999999999971,0.));
#479=CARTESIAN_POINT('Origin',(-2.01582034646599E-12,21.9999999999895,0.));
#480=CARTESIAN_POINT('',(90.0000000000006,21.4999999999977,0.));
#481=CARTESIAN_POINT('',(-90.0000000000045,21.4999999999812,-1.10218211923265E-14));
#482=CARTESIAN_POINT('Origin',(-1.97000624768264E-12,21.4999999999895,0.));
#483=CARTESIAN_POINT('Origin',(-1.97000624768264E-12,21.4999999999895,0.));
#484=CARTESIAN_POINT('',(-89.5000000000046,21.9999999999813,-1.09605888523691E-14));
#485=CARTESIAN_POINT('Origin',(-1.51186525984862E-12,16.4999999999827,0.));
#486=CARTESIAN_POINT('',(89.9999999999867,11.4999999999841,0.));
#487=CARTESIAN_POINT('',(-89.9999999999962,11.4999999999677,-1.10218211923256E-14));
#488=CARTESIAN_POINT('Origin',(-1.0537242720146E-12,11.4999999999759,0.));
#489=CARTESIAN_POINT('Origin',(-1.0537242720146E-12,11.4999999999759,0.));
#490=CARTESIAN_POINT('',(-89.9999999999967,16.4999999999745,-1.10218211923256E-14));
#491=CARTESIAN_POINT('Origin',(-1.03081722262354E-12,11.2499999999825,0.));
#492=CARTESIAN_POINT('',(-89.5000000000026,10.9999999999809,1.0960588852369E-14));
#493=CARTESIAN_POINT('',(-89.7499999999957,11.2499999999743,1.09912050223468E-14));
#494=CARTESIAN_POINT('',(89.5000000000006,10.9999999999973,0.));
#495=CARTESIAN_POINT('Origin',(-1.00791017323247E-12,10.9999999999891,0.));
#496=CARTESIAN_POINT('Origin',(-1.00791017323247E-12,10.9999999999891,0.));
#497=CARTESIAN_POINT('Origin',(89.999999999986,10.9999999999973,0.));
#498=CARTESIAN_POINT('',(89.999999999986,10.9999999999973,0.));
#499=CARTESIAN_POINT('',(-89.9999999999877,10.9999999999808,-1.10218211923246E-14));
#500=CARTESIAN_POINT('Origin',(-1.00791017323247E-12,10.999999999989,0.));
#501=CARTESIAN_POINT('Origin',(-1.00791017323247E-12,10.999999999989,0.));
#502=CARTESIAN_POINT('Origin',(-7.00955711384204E-13,7.64999999999025,0.));
#503=CARTESIAN_POINT('',(89.999999999986,4.29999999999973,0.));
#504=CARTESIAN_POINT('',(-89.9999999999871,4.29999999998323,-1.10218211923246E-14));
#505=CARTESIAN_POINT('Origin',(-3.9400124953594E-13,4.29999999999148,0.));
#506=CARTESIAN_POINT('Origin',(-3.9400124953594E-13,4.29999999999148,0.));
#507=CARTESIAN_POINT('',(-89.9999999999874,7.649999999982,-1.10218211923246E-14));
#508=CARTESIAN_POINT('Origin',(84.4999999999956,4.30000000000049,0.));
#509=CARTESIAN_POINT('',(84.4999999999956,4.30000000000049,0.));
#510=CARTESIAN_POINT('',(-4.04349514988852E-13,4.29999999999275,84.499999999996));
#511=CARTESIAN_POINT('Origin',(-3.94001249536056E-13,4.29999999999275,0.));
#512=CARTESIAN_POINT('Origin',(-3.94001249536056E-13,4.29999999999275,0.));
#513=CARTESIAN_POINT('Origin',(-6.87933186974899E-13,7.50787645336228,0.));
#514=CARTESIAN_POINT('',(88.4999999999933,1.5,0.));
#515=CARTESIAN_POINT('',(-1.4828042052173E-13,1.49999999999189,88.4999999999934));
#516=CARTESIAN_POINT('Origin',(-1.37442296349276E-13,1.49999999999189,0.));
#517=CARTESIAN_POINT('',(-88.4999999999935,1.49999999998378,-1.08381241724533E-14));
#518=CARTESIAN_POINT('Origin',(-1.37442296349276E-13,1.49999999999189,0.));
#519=CARTESIAN_POINT('Origin',(-1.37442296349276E-13,1.49999999999189,0.));
#520=CARTESIAN_POINT('Origin',(-6.98921393267987E-13,7.50787645336228,89.7255135173558));
#521=CARTESIAN_POINT('Origin',(-6.87211481742667E-14,0.749999999991893,
0.));
#522=CARTESIAN_POINT('',(88.4999999999933,0.,0.));
#523=CARTESIAN_POINT('',(-88.4999999999934,-1.62181379437243E-11,-1.08381241724533E-14));
#524=CARTESIAN_POINT('Origin',(7.4291764610094E-25,-8.10906897186214E-12,
0.));
#525=CARTESIAN_POINT('Origin',(7.4291764610094E-25,-8.10906897186214E-12,
0.));
#526=CARTESIAN_POINT('',(-88.4999999999935,0.749999999983784,-1.08381241724533E-14));
#527=CARTESIAN_POINT('Origin',(0.,0.,0.));
#528=CARTESIAN_POINT('Origin',(5.77300000000162,66.9999999999973,0.));
#529=CARTESIAN_POINT('',(5.77300000000162,66.9999999999973,0.));
#530=CARTESIAN_POINT('',(-5.77300000001391,66.9999999999962,-7.06988597148719E-16));
#531=CARTESIAN_POINT('Origin',(-6.13908923696722E-12,66.9999999999967,0.));
#532=CARTESIAN_POINT('Origin',(-6.13908923696722E-12,66.9999999999967,0.));
#533=CARTESIAN_POINT('Origin',(-6.0828753377601E-12,66.3864999999972,0.));
#534=CARTESIAN_POINT('',(7.00000000000057,65.7729999999983,0.));
#535=CARTESIAN_POINT('',(-7.00000000001261,65.772999999997,-8.57252759403954E-16));
#536=CARTESIAN_POINT('Origin',(-6.02666143855299E-12,65.7729999999977,0.));
#537=CARTESIAN_POINT('Origin',(-6.02666143855299E-12,65.7729999999977,0.));
#538=CARTESIAN_POINT('',(-6.38650000001326,66.3864999999966,-7.82120678276336E-16));
#539=CARTESIAN_POINT('Origin',(-4.0441479419015E-12,44.1364999999974,0.));
#540=CARTESIAN_POINT('',(-7.00000000000502,44.1364999999968,-8.57252759403267E-16));
#541=UNCERTAINTY_MEASURE_WITH_UNIT(LENGTH_MEASURE(0.01),#545,
'DISTANCE_ACCURACY_VALUE',
'Maximum model space distance between geometric entities at asserted c
onnectivities');
#542=UNCERTAINTY_MEASURE_WITH_UNIT(LENGTH_MEASURE(0.01),#545,
'DISTANCE_ACCURACY_VALUE',
'Maximum model space distance between geometric entities at asserted c
onnectivities');
#543=(
GEOMETRIC_REPRESENTATION_CONTEXT(3)
GLOBAL_UNCERTAINTY_ASSIGNED_CONTEXT((#541))
GLOBAL_UNIT_ASSIGNED_CONTEXT((#545,#548,#547))
REPRESENTATION_CONTEXT('','3D')
);
#544=(
GEOMETRIC_REPRESENTATION_CONTEXT(3)
GLOBAL_UNCERTAINTY_ASSIGNED_CONTEXT((#542))
GLOBAL_UNIT_ASSIGNED_CONTEXT((#545,#548,#547))
REPRESENTATION_CONTEXT('','3D')
);
#545=(
LENGTH_UNIT()
NAMED_UNIT(*)
SI_UNIT(.MILLI.,.METRE.)
);
#546=(
LENGTH_UNIT()
NAMED_UNIT(*)
SI_UNIT(.CENTI.,.METRE.)
);
#547=(
NAMED_UNIT(*)
SI_UNIT($,.STERADIAN.)
SOLID_ANGLE_UNIT()
);
#548=(
NAMED_UNIT(*)
PLANE_ANGLE_UNIT()
SI_UNIT($,.RADIAN.)
);
#549=SHAPE_DEFINITION_REPRESENTATION(#550,#551);
#550=PRODUCT_DEFINITION_SHAPE('',$,#553);
#551=SHAPE_REPRESENTATION('',(#310),#543);
#552=PRODUCT_DEFINITION_CONTEXT('part definition',#557,'design');
#553=PRODUCT_DEFINITION('3D_vml180sb','3D_vml180sb',#554,#552);
#554=PRODUCT_DEFINITION_FORMATION('',$,#559);
#555=PRODUCT_RELATED_PRODUCT_CATEGORY('3D_vml180sb','3D_vml180sb',(#559));
#556=APPLICATION_PROTOCOL_DEFINITION('international standard',
'automotive_design',2009,#557);
#557=APPLICATION_CONTEXT(
'Core Data for Automotive Mechanical Design Process');
#558=PRODUCT_CONTEXT('part definition',#557,'mechanical');
#559=PRODUCT('3D_vml180sb','3D_vml180sb',$,(#558));
#560=PRESENTATION_STYLE_ASSIGNMENT((#565));
#561=PRESENTATION_STYLE_ASSIGNMENT((#566));
#562=PRESENTATION_STYLE_ASSIGNMENT((#567));
#563=PRESENTATION_STYLE_ASSIGNMENT((#568));
#564=PRESENTATION_STYLE_ASSIGNMENT((#569));
#565=SURFACE_STYLE_USAGE(.BOTH.,#570);
#566=SURFACE_STYLE_USAGE(.BOTH.,#571);
#567=SURFACE_STYLE_USAGE(.BOTH.,#572);
#568=SURFACE_STYLE_USAGE(.BOTH.,#573);
#569=SURFACE_STYLE_USAGE(.BOTH.,#574);
#570=SURFACE_SIDE_STYLE('',(#575));
#571=SURFACE_SIDE_STYLE('',(#576));
#572=SURFACE_SIDE_STYLE('',(#577));
#573=SURFACE_SIDE_STYLE('',(#578));
#574=SURFACE_SIDE_STYLE('',(#579));
#575=SURFACE_STYLE_FILL_AREA(#580);
#576=SURFACE_STYLE_FILL_AREA(#581);
#577=SURFACE_STYLE_FILL_AREA(#582);
#578=SURFACE_STYLE_FILL_AREA(#583);
#579=SURFACE_STYLE_FILL_AREA(#584);
#580=FILL_AREA_STYLE('',(#585));
#581=FILL_AREA_STYLE('',(#586));
#582=FILL_AREA_STYLE('',(#587));
#583=FILL_AREA_STYLE('',(#588));
#584=FILL_AREA_STYLE('',(#589));
#585=FILL_AREA_STYLE_COLOUR('',#590);
#586=FILL_AREA_STYLE_COLOUR('',#591);
#587=FILL_AREA_STYLE_COLOUR('',#592);
#588=FILL_AREA_STYLE_COLOUR('',#593);
#589=FILL_AREA_STYLE_COLOUR('',#594);
#590=COLOUR_RGB('',0.749019607843137,0.749019607843137,0.749019607843137);
#591=COLOUR_RGB('',0.32156862745098,0.32156862745098,0.32156862745098);
#592=COLOUR_RGB('',0.,0.486274509803922,0.690196078431373);
#593=COLOUR_RGB('',0.,0.486274509803922,0.690196078431373);
#594=COLOUR_RGB('',0.823529411764706,0.823529411764706,0.823529411764706);
ENDSEC;
END-ISO-10303-21;
