ISO-10303-21;
HEADER;
/* Generated by software containing ST-Developer
 * from STEP Tools, Inc. (www.steptools.com) 
 */

FILE_DESCRIPTION(
/* description */ (''),
/* implementation_level */ '2;1');

FILE_NAME(
/* name */ 'vpd132nat.stp',
/* time_stamp */ '2024-05-15T10:44:26+02:00',
/* author */ ('enginyeria3'),
/* organization */ (''),
/* preprocessor_version */ 'ST-DEVELOPER v20',
/* originating_system */ 'Autodesk Inventor 2024',
/* authorisation */ '');

FILE_SCHEMA (('AUTOMOTIVE_DESIGN { 1 0 10303 214 3 1 1 }'));
ENDSEC;

DATA;
#10=MECHANICAL_DESIGN_GEOMETRIC_PRESENTATION_REPRESENTATION('',(#167,#168,
#169,#170,#171,#172,#173,#174,#175,#176,#177,#178,#179),#364);
#11=SHAPE_REPRESENTATION_RELATIONSHIP('SRR','None',#371,#12);
#12=ADVANCED_BREP_SHAPE_REPRESENTATION('',(#13),#363);
#13=MANIFOLD_SOLID_BREP('S\X\F3lido2',#192);
#14=TOROIDAL_SURFACE('',#224,58.766080770311,1.5);
#15=TOROIDAL_SURFACE('',#233,64.5000000000001,1.5);
#16=FACE_BOUND('',#40,.T.);
#17=FACE_BOUND('',#49,.T.);
#18=PLANE('',#221);
#19=PLANE('',#223);
#20=PLANE('',#236);
#21=PLANE('',#241);
#22=CYLINDRICAL_SURFACE('',#219,8.15);
#23=CYLINDRICAL_SURFACE('',#239,45.4999999999999);
#24=CYLINDRICAL_SURFACE('',#243,57.266080770311);
#25=FACE_OUTER_BOUND('',#37,.T.);
#26=FACE_OUTER_BOUND('',#38,.T.);
#27=FACE_OUTER_BOUND('',#39,.T.);
#28=FACE_OUTER_BOUND('',#41,.T.);
#29=FACE_OUTER_BOUND('',#42,.T.);
#30=FACE_OUTER_BOUND('',#43,.T.);
#31=FACE_OUTER_BOUND('',#44,.T.);
#32=FACE_OUTER_BOUND('',#45,.T.);
#33=FACE_OUTER_BOUND('',#46,.T.);
#34=FACE_OUTER_BOUND('',#47,.T.);
#35=FACE_OUTER_BOUND('',#48,.T.);
#36=FACE_OUTER_BOUND('',#50,.T.);
#37=EDGE_LOOP('',(#118,#119,#120,#121,#122));
#38=EDGE_LOOP('',(#123,#124,#125,#126,#127));
#39=EDGE_LOOP('',(#128));
#40=EDGE_LOOP('',(#129));
#41=EDGE_LOOP('',(#130));
#42=EDGE_LOOP('',(#131,#132,#133,#134,#135,#136));
#43=EDGE_LOOP('',(#137,#138,#139,#140,#141,#142));
#44=EDGE_LOOP('',(#143,#144,#145,#146,#147));
#45=EDGE_LOOP('',(#148));
#46=EDGE_LOOP('',(#149,#150,#151,#152));
#47=EDGE_LOOP('',(#153,#154,#155,#156));
#48=EDGE_LOOP('',(#157));
#49=EDGE_LOOP('',(#158));
#50=EDGE_LOOP('',(#159,#160,#161,#162,#163));
#51=LINE('',#316,#57);
#52=LINE('',#322,#58);
#53=LINE('',#341,#59);
#54=LINE('',#351,#60);
#55=LINE('',#355,#61);
#56=LINE('',#360,#62);
#57=VECTOR('',#250,8.65);
#58=VECTOR('',#259,8.15);
#59=VECTOR('',#282,61.06079567076);
#60=VECTOR('',#297,44.7499999999999);
#61=VECTOR('',#302,45.4999999999999);
#62=VECTOR('',#309,57.266080770311);
#63=CIRCLE('',#216,8.15);
#64=CIRCLE('',#217,9.15);
#65=CIRCLE('',#218,8.15);
#66=CIRCLE('',#220,8.15);
#67=CIRCLE('',#222,43.9999999999998);
#68=CIRCLE('',#225,57.7529131368426);
#69=CIRCLE('',#226,57.7529131368426);
#70=CIRCLE('',#227,1.5);
#71=CIRCLE('',#228,57.266080770311);
#72=CIRCLE('',#229,57.266080770311);
#73=CIRCLE('',#231,64.3686782046773);
#74=CIRCLE('',#232,64.3686782046773);
#75=CIRCLE('',#234,66.0000000000001);
#76=CIRCLE('',#235,1.5);
#77=CIRCLE('',#238,45.4999999999999);
#78=CIRCLE('',#240,45.5);
#79=CIRCLE('',#242,57.266080770311);
#80=VERTEX_POINT('',#312);
#81=VERTEX_POINT('',#313);
#82=VERTEX_POINT('',#315);
#83=VERTEX_POINT('',#320);
#84=VERTEX_POINT('',#324);
#85=VERTEX_POINT('',#328);
#86=VERTEX_POINT('',#329);
#87=VERTEX_POINT('',#332);
#88=VERTEX_POINT('',#334);
#89=VERTEX_POINT('',#338);
#90=VERTEX_POINT('',#339);
#91=VERTEX_POINT('',#344);
#92=VERTEX_POINT('',#349);
#93=VERTEX_POINT('',#353);
#94=VERTEX_POINT('',#357);
#95=EDGE_CURVE('',#80,#81,#63,.T.);
#96=EDGE_CURVE('',#81,#82,#51,.T.);
#97=EDGE_CURVE('',#82,#82,#64,.T.);
#98=EDGE_CURVE('',#81,#80,#65,.T.);
#99=EDGE_CURVE('',#83,#83,#66,.T.);
#100=EDGE_CURVE('',#83,#80,#52,.T.);
#101=EDGE_CURVE('',#84,#84,#67,.T.);
#102=EDGE_CURVE('',#85,#86,#68,.T.);
#103=EDGE_CURVE('',#86,#85,#69,.T.);
#104=EDGE_CURVE('',#86,#87,#70,.T.);
#105=EDGE_CURVE('',#87,#88,#71,.T.);
#106=EDGE_CURVE('',#88,#87,#72,.T.);
#107=EDGE_CURVE('',#89,#90,#73,.T.);
#108=EDGE_CURVE('',#89,#85,#53,.T.);
#109=EDGE_CURVE('',#90,#89,#74,.T.);
#110=EDGE_CURVE('',#91,#91,#75,.T.);
#111=EDGE_CURVE('',#91,#90,#76,.T.);
#112=EDGE_CURVE('',#92,#92,#77,.T.);
#113=EDGE_CURVE('',#92,#84,#54,.T.);
#114=EDGE_CURVE('',#93,#93,#78,.T.);
#115=EDGE_CURVE('',#93,#92,#55,.T.);
#116=EDGE_CURVE('',#94,#94,#79,.T.);
#117=EDGE_CURVE('',#88,#94,#56,.T.);
#118=ORIENTED_EDGE('',*,*,#95,.T.);
#119=ORIENTED_EDGE('',*,*,#96,.T.);
#120=ORIENTED_EDGE('',*,*,#97,.T.);
#121=ORIENTED_EDGE('',*,*,#96,.F.);
#122=ORIENTED_EDGE('',*,*,#98,.T.);
#123=ORIENTED_EDGE('',*,*,#99,.F.);
#124=ORIENTED_EDGE('',*,*,#100,.T.);
#125=ORIENTED_EDGE('',*,*,#98,.F.);
#126=ORIENTED_EDGE('',*,*,#95,.F.);
#127=ORIENTED_EDGE('',*,*,#100,.F.);
#128=ORIENTED_EDGE('',*,*,#101,.F.);
#129=ORIENTED_EDGE('',*,*,#97,.F.);
#130=ORIENTED_EDGE('',*,*,#99,.T.);
#131=ORIENTED_EDGE('',*,*,#102,.F.);
#132=ORIENTED_EDGE('',*,*,#103,.F.);
#133=ORIENTED_EDGE('',*,*,#104,.T.);
#134=ORIENTED_EDGE('',*,*,#105,.T.);
#135=ORIENTED_EDGE('',*,*,#106,.T.);
#136=ORIENTED_EDGE('',*,*,#104,.F.);
#137=ORIENTED_EDGE('',*,*,#107,.F.);
#138=ORIENTED_EDGE('',*,*,#108,.T.);
#139=ORIENTED_EDGE('',*,*,#102,.T.);
#140=ORIENTED_EDGE('',*,*,#103,.T.);
#141=ORIENTED_EDGE('',*,*,#108,.F.);
#142=ORIENTED_EDGE('',*,*,#109,.F.);
#143=ORIENTED_EDGE('',*,*,#110,.F.);
#144=ORIENTED_EDGE('',*,*,#111,.T.);
#145=ORIENTED_EDGE('',*,*,#109,.T.);
#146=ORIENTED_EDGE('',*,*,#107,.T.);
#147=ORIENTED_EDGE('',*,*,#111,.F.);
#148=ORIENTED_EDGE('',*,*,#110,.T.);
#149=ORIENTED_EDGE('',*,*,#112,.F.);
#150=ORIENTED_EDGE('',*,*,#113,.T.);
#151=ORIENTED_EDGE('',*,*,#101,.T.);
#152=ORIENTED_EDGE('',*,*,#113,.F.);
#153=ORIENTED_EDGE('',*,*,#114,.F.);
#154=ORIENTED_EDGE('',*,*,#115,.T.);
#155=ORIENTED_EDGE('',*,*,#112,.T.);
#156=ORIENTED_EDGE('',*,*,#115,.F.);
#157=ORIENTED_EDGE('',*,*,#116,.F.);
#158=ORIENTED_EDGE('',*,*,#114,.T.);
#159=ORIENTED_EDGE('',*,*,#106,.F.);
#160=ORIENTED_EDGE('',*,*,#117,.T.);
#161=ORIENTED_EDGE('',*,*,#116,.T.);
#162=ORIENTED_EDGE('',*,*,#117,.F.);
#163=ORIENTED_EDGE('',*,*,#105,.F.);
#164=CONICAL_SURFACE('',#215,8.65,0.785398163397448);
#165=CONICAL_SURFACE('',#230,61.06079567076,0.829228207410593);
#166=CONICAL_SURFACE('',#237,44.7499999999999,0.785398163397506);
#167=STYLED_ITEM('',(#382),#180);
#168=STYLED_ITEM('',(#382),#181);
#169=STYLED_ITEM('',(#382),#182);
#170=STYLED_ITEM('',(#383),#183);
#171=STYLED_ITEM('',(#383),#184);
#172=STYLED_ITEM('',(#383),#185);
#173=STYLED_ITEM('',(#383),#186);
#174=STYLED_ITEM('',(#383),#187);
#175=STYLED_ITEM('',(#382),#188);
#176=STYLED_ITEM('',(#382),#189);
#177=STYLED_ITEM('',(#383),#190);
#178=STYLED_ITEM('',(#383),#191);
#179=STYLED_ITEM('',(#381),#13);
#180=ADVANCED_FACE('',(#25),#164,.F.);
#181=ADVANCED_FACE('',(#26),#22,.F.);
#182=ADVANCED_FACE('',(#27,#16),#18,.T.);
#183=ADVANCED_FACE('',(#28),#19,.T.);
#184=ADVANCED_FACE('',(#29),#14,.F.);
#185=ADVANCED_FACE('',(#30),#165,.T.);
#186=ADVANCED_FACE('',(#31),#15,.T.);
#187=ADVANCED_FACE('',(#32),#20,.T.);
#188=ADVANCED_FACE('',(#33),#166,.T.);
#189=ADVANCED_FACE('',(#34),#23,.T.);
#190=ADVANCED_FACE('',(#35,#17),#21,.T.);
#191=ADVANCED_FACE('',(#36),#24,.T.);
#192=CLOSED_SHELL('',(#180,#181,#182,#183,#184,#185,#186,#187,#188,#189,
#190,#191));
#193=DERIVED_UNIT_ELEMENT(#196,1.);
#194=DERIVED_UNIT_ELEMENT(#366,-3.);
#195=DIMENSIONAL_EXPONENTS(0.,1.,0.,0.,0.,0.,0.);
#196=(
CONVERSION_BASED_UNIT('gram',#198)
MASS_UNIT()
NAMED_UNIT(#195)
);
#197=(
MASS_UNIT()
NAMED_UNIT(*)
SI_UNIT(.KILO.,.GRAM.)
);
#198=MASS_MEASURE_WITH_UNIT(MASS_MEASURE(0.001),#197);
#199=DERIVED_UNIT((#193,#194));
#200=MEASURE_REPRESENTATION_ITEM('density measure',
POSITIVE_RATIO_MEASURE(1.),#199);
#201=PROPERTY_DEFINITION_REPRESENTATION(#206,#203);
#202=PROPERTY_DEFINITION_REPRESENTATION(#207,#204);
#203=REPRESENTATION('material name',(#205),#363);
#204=REPRESENTATION('density',(#200),#363);
#205=DESCRIPTIVE_REPRESENTATION_ITEM('Generic','Generic');
#206=PROPERTY_DEFINITION('material property','material name',#373);
#207=PROPERTY_DEFINITION('material property','density of part',#373);
#208=DATE_TIME_ROLE('creation_date');
#209=APPLIED_DATE_AND_TIME_ASSIGNMENT(#210,#208,(#373));
#210=DATE_AND_TIME(#211,#212);
#211=CALENDAR_DATE(2020,2,11);
#212=LOCAL_TIME(12,22,5.,#213);
#213=COORDINATED_UNIVERSAL_TIME_OFFSET(0,0,.BEHIND.);
#214=AXIS2_PLACEMENT_3D('',#310,#244,#245);
#215=AXIS2_PLACEMENT_3D('',#311,#246,#247);
#216=AXIS2_PLACEMENT_3D('',#314,#248,#249);
#217=AXIS2_PLACEMENT_3D('',#317,#251,#252);
#218=AXIS2_PLACEMENT_3D('',#318,#253,#254);
#219=AXIS2_PLACEMENT_3D('',#319,#255,#256);
#220=AXIS2_PLACEMENT_3D('',#321,#257,#258);
#221=AXIS2_PLACEMENT_3D('',#323,#260,#261);
#222=AXIS2_PLACEMENT_3D('',#325,#262,#263);
#223=AXIS2_PLACEMENT_3D('',#326,#264,#265);
#224=AXIS2_PLACEMENT_3D('',#327,#266,#267);
#225=AXIS2_PLACEMENT_3D('',#330,#268,#269);
#226=AXIS2_PLACEMENT_3D('',#331,#270,#271);
#227=AXIS2_PLACEMENT_3D('',#333,#272,#273);
#228=AXIS2_PLACEMENT_3D('',#335,#274,#275);
#229=AXIS2_PLACEMENT_3D('',#336,#276,#277);
#230=AXIS2_PLACEMENT_3D('',#337,#278,#279);
#231=AXIS2_PLACEMENT_3D('',#340,#280,#281);
#232=AXIS2_PLACEMENT_3D('',#342,#283,#284);
#233=AXIS2_PLACEMENT_3D('',#343,#285,#286);
#234=AXIS2_PLACEMENT_3D('',#345,#287,#288);
#235=AXIS2_PLACEMENT_3D('',#346,#289,#290);
#236=AXIS2_PLACEMENT_3D('',#347,#291,#292);
#237=AXIS2_PLACEMENT_3D('',#348,#293,#294);
#238=AXIS2_PLACEMENT_3D('',#350,#295,#296);
#239=AXIS2_PLACEMENT_3D('',#352,#298,#299);
#240=AXIS2_PLACEMENT_3D('',#354,#300,#301);
#241=AXIS2_PLACEMENT_3D('',#356,#303,#304);
#242=AXIS2_PLACEMENT_3D('',#358,#305,#306);
#243=AXIS2_PLACEMENT_3D('',#359,#307,#308);
#244=DIRECTION('axis',(0.,0.,1.));
#245=DIRECTION('refdir',(1.,0.,0.));
#246=DIRECTION('center_axis',(2.27373668622022E-15,1.,0.));
#247=DIRECTION('ref_axis',(-1.,2.27373668622022E-15,0.));
#248=DIRECTION('center_axis',(-2.27373668622023E-15,-1.,0.));
#249=DIRECTION('ref_axis',(-1.,2.27373668622023E-15,0.));
#250=DIRECTION('',(0.707106781186549,0.707106781186546,-8.65956056235493E-17));
#251=DIRECTION('center_axis',(2.27373668622023E-15,1.,0.));
#252=DIRECTION('ref_axis',(-1.,2.27373668622023E-15,0.));
#253=DIRECTION('center_axis',(-2.27373668622023E-15,-1.,0.));
#254=DIRECTION('ref_axis',(-1.,2.27373668622023E-15,0.));
#255=DIRECTION('center_axis',(2.27373668622023E-15,1.,0.));
#256=DIRECTION('ref_axis',(1.,-2.27373668622023E-15,0.));
#257=DIRECTION('center_axis',(2.27373668622023E-15,1.,0.));
#258=DIRECTION('ref_axis',(1.,-2.27373668622023E-15,0.));
#259=DIRECTION('',(2.27373668622023E-15,1.,0.));
#260=DIRECTION('center_axis',(2.27373668622023E-15,1.,0.));
#261=DIRECTION('ref_axis',(0.,0.,1.));
#262=DIRECTION('center_axis',(-2.27373668622023E-15,-1.,0.));
#263=DIRECTION('ref_axis',(1.,-2.27373668622023E-15,0.));
#264=DIRECTION('center_axis',(2.27373668622023E-15,1.,0.));
#265=DIRECTION('ref_axis',(1.,-2.27373668622023E-15,0.));
#266=DIRECTION('center_axis',(-2.27373668622023E-15,-1.,0.));
#267=DIRECTION('ref_axis',(0.,0.,-1.));
#268=DIRECTION('center_axis',(-2.27373668622023E-15,-1.,0.));
#269=DIRECTION('ref_axis',(1.,-2.27373668622023E-15,0.));
#270=DIRECTION('center_axis',(-2.27373668622023E-15,-1.,0.));
#271=DIRECTION('ref_axis',(1.,-2.27373668622023E-15,0.));
#272=DIRECTION('center_axis',(1.,-2.27373668622023E-15,1.22464679914735E-16));
#273=DIRECTION('ref_axis',(-1.22464679914735E-16,0.,1.));
#274=DIRECTION('center_axis',(-2.27373668622023E-15,-1.,0.));
#275=DIRECTION('ref_axis',(1.,-2.27373668622023E-15,0.));
#276=DIRECTION('center_axis',(-2.27373668622023E-15,-1.,0.));
#277=DIRECTION('ref_axis',(1.,-2.27373668622023E-15,0.));
#278=DIRECTION('center_axis',(-2.27373668622023E-15,-1.,0.));
#279=DIRECTION('ref_axis',(1.,-2.27373668622023E-15,0.));
#280=DIRECTION('center_axis',(-2.27373668622023E-15,-1.,0.));
#281=DIRECTION('ref_axis',(1.,-2.27373668622023E-15,0.));
#282=DIRECTION('',(0.737410287271789,0.675445088978917,9.03067147965725E-17));
#283=DIRECTION('center_axis',(-2.27373668622023E-15,-1.,0.));
#284=DIRECTION('ref_axis',(1.,-2.27373668622023E-15,0.));
#285=DIRECTION('center_axis',(-2.27373668622023E-15,-1.,0.));
#286=DIRECTION('ref_axis',(0.,0.,-1.));
#287=DIRECTION('center_axis',(-2.27373668622023E-15,-1.,0.));
#288=DIRECTION('ref_axis',(1.,-2.27373668622023E-15,0.));
#289=DIRECTION('center_axis',(-1.,2.27373668622023E-15,-1.22464679914735E-16));
#290=DIRECTION('ref_axis',(-1.22464679914735E-16,2.39048759157882E-31,1.));
#291=DIRECTION('center_axis',(-2.27373668622023E-15,-1.,0.));
#292=DIRECTION('ref_axis',(0.,0.,-1.));
#293=DIRECTION('center_axis',(-2.27373668622023E-15,-1.,0.));
#294=DIRECTION('ref_axis',(1.,-2.27373668622023E-15,0.));
#295=DIRECTION('center_axis',(-2.27373668622023E-15,-1.,0.));
#296=DIRECTION('ref_axis',(1.,-2.27373668622023E-15,0.));
#297=DIRECTION('',(0.70710678118659,0.707106781186505,8.65956056235543E-17));
#298=DIRECTION('center_axis',(-2.27373668622023E-15,-1.,0.));
#299=DIRECTION('ref_axis',(1.,-2.27373668622023E-15,0.));
#300=DIRECTION('center_axis',(-2.27373668622023E-15,-1.,0.));
#301=DIRECTION('ref_axis',(1.,-2.27373668622023E-15,0.));
#302=DIRECTION('',(2.27373668622023E-15,1.,0.));
#303=DIRECTION('center_axis',(2.27373668622023E-15,1.,0.));
#304=DIRECTION('ref_axis',(0.,0.,1.));
#305=DIRECTION('center_axis',(-2.27373668622023E-15,-1.,0.));
#306=DIRECTION('ref_axis',(1.,-2.27373668622023E-15,0.));
#307=DIRECTION('center_axis',(-2.27373668622023E-15,-1.,0.));
#308=DIRECTION('ref_axis',(1.,-2.27373668622023E-15,0.));
#309=DIRECTION('',(2.27373668622023E-15,1.,0.));
#310=CARTESIAN_POINT('',(0.,0.,0.));
#311=CARTESIAN_POINT('Origin',(5.57065505176986E-14,24.5000007500002,0.));
#312=CARTESIAN_POINT('',(-8.14999999999995,24.0000007500002,9.98087141305093E-16));
#313=CARTESIAN_POINT('',(8.15000000000006,24.0000007500002,-9.98087141305093E-16));
#314=CARTESIAN_POINT('Origin',(5.45696821745885E-14,24.0000007500002,0.));
#315=CARTESIAN_POINT('',(9.15000000000006,25.0000007500002,-1.12055182121983E-15));
#316=CARTESIAN_POINT('',(8.65000000000006,24.5000007500002,-1.05931948126246E-15));
#317=CARTESIAN_POINT('Origin',(5.68434188608087E-14,25.0000007500002,0.));
#318=CARTESIAN_POINT('Origin',(5.45696821745885E-14,24.0000007500002,0.));
#319=CARTESIAN_POINT('Origin',(4.26325645719323E-14,18.7500007500002,0.));
#320=CARTESIAN_POINT('',(-8.14999999999997,12.5000007500002,9.98087141305093E-16));
#321=CARTESIAN_POINT('Origin',(2.84217102830559E-14,12.5000007500002,0.));
#322=CARTESIAN_POINT('',(-8.14999999999996,18.7500007500002,9.98087141305093E-16));
#323=CARTESIAN_POINT('Origin',(43.9999999999999,25.0000007500001,0.));
#324=CARTESIAN_POINT('',(-43.9999999999997,25.0000007500003,-5.38844591624833E-15));
#325=CARTESIAN_POINT('Origin',(5.68434188608087E-14,25.0000007500002,0.));
#326=CARTESIAN_POINT('Origin',(2.84217102830559E-14,12.5000007500002,0.));
#327=CARTESIAN_POINT('Origin',(1.96909979473978E-14,8.66019274207665,0.));
#328=CARTESIAN_POINT('',(-57.7529131368426,7.55407731116912,-7.07269202144694E-15));
#329=CARTESIAN_POINT('',(1.01032906915018E-14,7.55407731116897,57.7529131368426));
#330=CARTESIAN_POINT('Origin',(1.71759827129487E-14,7.55407731116897,0.));
#331=CARTESIAN_POINT('Origin',(1.71759827129487E-14,7.55407731116897,0.));
#332=CARTESIAN_POINT('',(1.26779256958903E-14,8.66019274207665,57.266080770311));
#333=CARTESIAN_POINT('Origin',(1.24942286760182E-14,8.66019274207665,58.766080770311));
#334=CARTESIAN_POINT('',(-57.266080770311,8.66019274207678,-7.01307225150752E-15));
#335=CARTESIAN_POINT('Origin',(1.96909979473978E-14,8.66019274207665,0.));
#336=CARTESIAN_POINT('Origin',(1.96909979473978E-14,8.66019274207665,0.));
#337=CARTESIAN_POINT('Origin',(1.02867460452903E-14,4.52415889123493,0.));
#338=CARTESIAN_POINT('',(-64.3686782046773,1.49424047130109,-7.88288957287041E-15));
#339=CARTESIAN_POINT('',(-4.48538019523854E-15,1.4942404713009,64.3686782046773));
#340=CARTESIAN_POINT('Origin',(3.39750937763186E-15,1.4942404713009,0.));
#341=CARTESIAN_POINT('',(-61.06079567076,4.52415889123507,-7.47779079715868E-15));
#342=CARTESIAN_POINT('Origin',(3.39750937763186E-15,1.4942404713009,0.));
#343=CARTESIAN_POINT('Origin',(2.36658271566304E-28,1.04360964314765E-13,
0.));
#344=CARTESIAN_POINT('',(-8.0826688743721E-15,1.93178806284777E-13,66.0000000000001));
#345=CARTESIAN_POINT('Origin',(4.37817802397662E-28,1.93178806284777E-13,
0.));
#346=CARTESIAN_POINT('Origin',(-7.8989718545002E-15,1.04360964314765E-13,
64.5000000000001));
#347=CARTESIAN_POINT('Origin',(0.,0.,0.));
#348=CARTESIAN_POINT('Origin',(5.51381163461436E-14,24.2500007500002,0.));
#349=CARTESIAN_POINT('',(-45.4999999999998,23.5000007500004,-5.57214293612044E-15));
#350=CARTESIAN_POINT('Origin',(5.34328138314785E-14,23.5000007500003,0.));
#351=CARTESIAN_POINT('',(-44.7499999999998,24.2500007500003,-5.48029442618439E-15));
#352=CARTESIAN_POINT('Origin',(4.94537746305929E-14,21.7500007500002,0.));
#353=CARTESIAN_POINT('',(-45.4999999999998,20.0000007500002,-5.57214293612044E-15));
#354=CARTESIAN_POINT('Origin',(4.54747354297074E-14,20.0000007500001,0.));
#355=CARTESIAN_POINT('',(-45.4999999999998,21.7500007500003,-5.57214293612044E-15));
#356=CARTESIAN_POINT('Origin',(57.266080770311,20.0000007500001,0.));
#357=CARTESIAN_POINT('',(-57.266080770311,20.0000007500003,-7.01307225150752E-15));
#358=CARTESIAN_POINT('Origin',(4.54747354297076E-14,20.0000007500002,0.));
#359=CARTESIAN_POINT('Origin',(3.25828666885527E-14,14.3300967460384,0.));
#360=CARTESIAN_POINT('',(-57.266080770311,14.3300967460385,-7.01307225150752E-15));
#361=UNCERTAINTY_MEASURE_WITH_UNIT(LENGTH_MEASURE(0.01),#365,
'DISTANCE_ACCURACY_VALUE',
'Maximum model space distance between geometric entities at asserted c
onnectivities');
#362=UNCERTAINTY_MEASURE_WITH_UNIT(LENGTH_MEASURE(0.01),#365,
'DISTANCE_ACCURACY_VALUE',
'Maximum model space distance between geometric entities at asserted c
onnectivities');
#363=(
GEOMETRIC_REPRESENTATION_CONTEXT(3)
GLOBAL_UNCERTAINTY_ASSIGNED_CONTEXT((#361))
GLOBAL_UNIT_ASSIGNED_CONTEXT((#365,#367,#368))
REPRESENTATION_CONTEXT('','3D')
);
#364=(
GEOMETRIC_REPRESENTATION_CONTEXT(3)
GLOBAL_UNCERTAINTY_ASSIGNED_CONTEXT((#362))
GLOBAL_UNIT_ASSIGNED_CONTEXT((#365,#367,#368))
REPRESENTATION_CONTEXT('','3D')
);
#365=(
LENGTH_UNIT()
NAMED_UNIT(*)
SI_UNIT(.MILLI.,.METRE.)
);
#366=(
LENGTH_UNIT()
NAMED_UNIT(*)
SI_UNIT(.CENTI.,.METRE.)
);
#367=(
NAMED_UNIT(*)
PLANE_ANGLE_UNIT()
SI_UNIT($,.RADIAN.)
);
#368=(
NAMED_UNIT(*)
SI_UNIT($,.STERADIAN.)
SOLID_ANGLE_UNIT()
);
#369=SHAPE_DEFINITION_REPRESENTATION(#370,#371);
#370=PRODUCT_DEFINITION_SHAPE('',$,#373);
#371=SHAPE_REPRESENTATION('',(#214),#363);
#372=PRODUCT_DEFINITION_CONTEXT('part definition',#377,'design');
#373=PRODUCT_DEFINITION('vpd132cn','3D_vpd132nat',#374,#372);
#374=PRODUCT_DEFINITION_FORMATION('',$,#379);
#375=PRODUCT_RELATED_PRODUCT_CATEGORY('3D_vpd132nat','3D_vpd132nat',(#379));
#376=APPLICATION_PROTOCOL_DEFINITION('international standard',
'automotive_design',2009,#377);
#377=APPLICATION_CONTEXT(
'Core Data for Automotive Mechanical Design Process');
#378=PRODUCT_CONTEXT('part definition',#377,'mechanical');
#379=PRODUCT('vpd132cn','3D_vpd132nat',$,(#378));
#380=PRESENTATION_STYLE_ASSIGNMENT((#384));
#381=PRESENTATION_STYLE_ASSIGNMENT((#385));
#382=PRESENTATION_STYLE_ASSIGNMENT((#386));
#383=PRESENTATION_STYLE_ASSIGNMENT((#387));
#384=SURFACE_STYLE_USAGE(.BOTH.,#396);
#385=SURFACE_STYLE_USAGE(.BOTH.,#397);
#386=SURFACE_STYLE_USAGE(.BOTH.,#398);
#387=SURFACE_STYLE_USAGE(.BOTH.,#399);
#388=SURFACE_STYLE_RENDERING_WITH_PROPERTIES($,#412,(#392));
#389=SURFACE_STYLE_RENDERING_WITH_PROPERTIES($,#413,(#393));
#390=SURFACE_STYLE_RENDERING_WITH_PROPERTIES($,#414,(#394));
#391=SURFACE_STYLE_RENDERING_WITH_PROPERTIES($,#415,(#395));
#392=SURFACE_STYLE_TRANSPARENT(0.);
#393=SURFACE_STYLE_TRANSPARENT(0.);
#394=SURFACE_STYLE_TRANSPARENT(0.);
#395=SURFACE_STYLE_TRANSPARENT(0.);
#396=SURFACE_SIDE_STYLE('',(#400,#388));
#397=SURFACE_SIDE_STYLE('',(#401,#389));
#398=SURFACE_SIDE_STYLE('',(#402,#390));
#399=SURFACE_SIDE_STYLE('',(#403,#391));
#400=SURFACE_STYLE_FILL_AREA(#404);
#401=SURFACE_STYLE_FILL_AREA(#405);
#402=SURFACE_STYLE_FILL_AREA(#406);
#403=SURFACE_STYLE_FILL_AREA(#407);
#404=FILL_AREA_STYLE('',(#408));
#405=FILL_AREA_STYLE('',(#409));
#406=FILL_AREA_STYLE('',(#410));
#407=FILL_AREA_STYLE('',(#411));
#408=FILL_AREA_STYLE_COLOUR('',#412);
#409=FILL_AREA_STYLE_COLOUR('',#413);
#410=FILL_AREA_STYLE_COLOUR('',#414);
#411=FILL_AREA_STYLE_COLOUR('',#415);
#412=COLOUR_RGB('',0.749019607843137,0.749019607843137,0.749019607843137);
#413=COLOUR_RGB('',0.235294117647059,0.486274509803922,0.607843137254902);
#414=COLOUR_RGB('',0.,0.486274509803922,0.690196078431373);
#415=COLOUR_RGB('',0.749019607843137,0.749019607843137,0.749019607843137);
ENDSEC;
END-ISO-10303-21;
