ISO-10303-21;
HEADER;
/* Generated by software containing ST-Developer
 * from STEP Tools, Inc. (www.steptools.com) 
 */

FILE_DESCRIPTION(
/* description */ (''),
/* implementation_level */ '2;1');

FILE_NAME(
/* name */ 
'C:\\Users\\nebuc\\OneDrive\\Escritorio\\AR VC Cups\\VS CN\\vs35cn.stp',

/* time_stamp */ '2020-03-26T12:45:08+01:00',
/* author */ ('nebuc'),
/* organization */ (''),
/* preprocessor_version */ 'ST-DEVELOPER v17',
/* originating_system */ 'Autodesk Inventor 2019',
/* authorisation */ '');

FILE_SCHEMA (('AUTOMOTIVE_DESIGN { 1 0 10303 214 3 1 1 }'));
ENDSEC;

DATA;
#10=MECHANICAL_DESIGN_GEOMETRIC_PRESENTATION_REPRESENTATION('',(#136,#137,
#138,#139,#140,#141,#142,#143,#144),#319);
#11=SHAPE_REPRESENTATION_RELATIONSHIP('SRR','None',#326,#12);
#12=ADVANCED_BREP_SHAPE_REPRESENTATION('',(#13),#318);
#13=MANIFOLD_SOLID_BREP('Solid1',#153);
#14=(
BOUNDED_SURFACE()
B_SPLINE_SURFACE(2,2,((#288,#289,#290,#291,#292,#293,#294,#295,#296),(#297,
#298,#299,#300,#301,#302,#303,#304,#305),(#306,#307,#308,#309,#310,#311,
#312,#313,#314)),.UNSPECIFIED.,.F.,.T.,.F.)
B_SPLINE_SURFACE_WITH_KNOTS((3,3),(3,2,2,2,3),(-1.47098815612784,-0.270818758023463),
(-3.14159265358979,-1.5707963267949,0.,1.5707963267949,3.14159265358979),
 .UNSPECIFIED.)
GEOMETRIC_REPRESENTATION_ITEM()
RATIONAL_B_SPLINE_SURFACE(((1.,0.707106781186548,1.,0.707106781186548,1.,
0.707106781186548,1.,0.707106781186548,1.),(0.825287787266962,0.58356659080691,
0.825287787266962,0.58356659080691,0.825287787266962,0.58356659080691,0.825287787266962,
0.58356659080691,0.825287787266962),(1.,0.707106781186548,1.,0.707106781186548,
1.,0.707106781186548,1.,0.707106781186548,1.)))
REPRESENTATION_ITEM('')
SURFACE()
);
#15=FACE_BOUND('',#33,.T.);
#16=FACE_BOUND('',#36,.T.);
#17=PLANE('',#178);
#18=PLANE('',#179);
#19=PLANE('',#182);
#20=PLANE('',#188);
#21=FACE_OUTER_BOUND('',#29,.T.);
#22=FACE_OUTER_BOUND('',#30,.T.);
#23=FACE_OUTER_BOUND('',#31,.T.);
#24=FACE_OUTER_BOUND('',#32,.T.);
#25=FACE_OUTER_BOUND('',#34,.T.);
#26=FACE_OUTER_BOUND('',#35,.T.);
#27=FACE_OUTER_BOUND('',#37,.T.);
#28=FACE_OUTER_BOUND('',#38,.T.);
#29=EDGE_LOOP('',(#95,#96,#97,#98,#99,#100));
#30=EDGE_LOOP('',(#101,#102));
#31=EDGE_LOOP('',(#103,#104));
#32=EDGE_LOOP('',(#105,#106));
#33=EDGE_LOOP('',(#107,#108));
#34=EDGE_LOOP('',(#109,#110,#111,#112,#113,#114));
#35=EDGE_LOOP('',(#115,#116));
#36=EDGE_LOOP('',(#117,#118));
#37=EDGE_LOOP('',(#119,#120,#121,#122,#123,#124,#125));
#38=EDGE_LOOP('',(#126,#127,#128,#129,#130,#131,#132));
#39=LINE('',#254,#42);
#40=LINE('',#274,#43);
#41=LINE('',#287,#44);
#42=VECTOR('',#204,3.5);
#43=VECTOR('',#229,9.5);
#44=VECTOR('',#244,7.50000000000001);
#45=CIRCLE('',#174,3.5);
#46=CIRCLE('',#175,3.5);
#47=CIRCLE('',#176,3.5);
#48=CIRCLE('',#177,3.5);
#49=CIRCLE('',#180,17.);
#50=CIRCLE('',#181,17.);
#51=CIRCLE('',#183,9.50000000000006);
#52=CIRCLE('',#184,9.50000000000006);
#53=CIRCLE('',#186,9.49999999999994);
#54=CIRCLE('',#187,9.49999999999994);
#55=CIRCLE('',#189,7.5);
#56=CIRCLE('',#190,7.5);
#57=CIRCLE('',#192,7.50000000000002);
#58=CIRCLE('',#193,7.50000000000002);
#59=CIRCLE('',#194,7.50000000000002);
#60=CIRCLE('',#195,10.9965204101278);
#61=VERTEX_POINT('',#249);
#62=VERTEX_POINT('',#250);
#63=VERTEX_POINT('',#253);
#64=VERTEX_POINT('',#255);
#65=VERTEX_POINT('',#260);
#66=VERTEX_POINT('',#261);
#67=VERTEX_POINT('',#265);
#68=VERTEX_POINT('',#266);
#69=VERTEX_POINT('',#270);
#70=VERTEX_POINT('',#271);
#71=VERTEX_POINT('',#276);
#72=VERTEX_POINT('',#277);
#73=VERTEX_POINT('',#281);
#74=VERTEX_POINT('',#282);
#75=VERTEX_POINT('',#284);
#76=EDGE_CURVE('',#61,#62,#45,.T.);
#77=EDGE_CURVE('',#62,#61,#46,.T.);
#78=EDGE_CURVE('',#62,#63,#39,.T.);
#79=EDGE_CURVE('',#64,#63,#47,.T.);
#80=EDGE_CURVE('',#63,#64,#48,.T.);
#81=EDGE_CURVE('',#65,#66,#49,.T.);
#82=EDGE_CURVE('',#66,#65,#50,.T.);
#83=EDGE_CURVE('',#67,#68,#51,.T.);
#84=EDGE_CURVE('',#68,#67,#52,.T.);
#85=EDGE_CURVE('',#69,#70,#53,.T.);
#86=EDGE_CURVE('',#70,#69,#54,.T.);
#87=EDGE_CURVE('',#70,#68,#40,.T.);
#88=EDGE_CURVE('',#71,#72,#55,.T.);
#89=EDGE_CURVE('',#72,#71,#56,.T.);
#90=EDGE_CURVE('',#73,#74,#57,.T.);
#91=EDGE_CURVE('',#75,#73,#58,.T.);
#92=EDGE_CURVE('',#74,#75,#59,.T.);
#93=EDGE_CURVE('',#74,#72,#41,.T.);
#94=EDGE_CURVE('',#75,#66,#60,.T.);
#95=ORIENTED_EDGE('',*,*,#76,.F.);
#96=ORIENTED_EDGE('',*,*,#77,.F.);
#97=ORIENTED_EDGE('',*,*,#78,.T.);
#98=ORIENTED_EDGE('',*,*,#79,.F.);
#99=ORIENTED_EDGE('',*,*,#80,.F.);
#100=ORIENTED_EDGE('',*,*,#78,.F.);
#101=ORIENTED_EDGE('',*,*,#79,.T.);
#102=ORIENTED_EDGE('',*,*,#80,.T.);
#103=ORIENTED_EDGE('',*,*,#81,.T.);
#104=ORIENTED_EDGE('',*,*,#82,.T.);
#105=ORIENTED_EDGE('',*,*,#83,.F.);
#106=ORIENTED_EDGE('',*,*,#84,.F.);
#107=ORIENTED_EDGE('',*,*,#76,.T.);
#108=ORIENTED_EDGE('',*,*,#77,.T.);
#109=ORIENTED_EDGE('',*,*,#85,.F.);
#110=ORIENTED_EDGE('',*,*,#86,.F.);
#111=ORIENTED_EDGE('',*,*,#87,.T.);
#112=ORIENTED_EDGE('',*,*,#84,.T.);
#113=ORIENTED_EDGE('',*,*,#83,.T.);
#114=ORIENTED_EDGE('',*,*,#87,.F.);
#115=ORIENTED_EDGE('',*,*,#85,.T.);
#116=ORIENTED_EDGE('',*,*,#86,.T.);
#117=ORIENTED_EDGE('',*,*,#88,.F.);
#118=ORIENTED_EDGE('',*,*,#89,.F.);
#119=ORIENTED_EDGE('',*,*,#90,.F.);
#120=ORIENTED_EDGE('',*,*,#91,.F.);
#121=ORIENTED_EDGE('',*,*,#92,.F.);
#122=ORIENTED_EDGE('',*,*,#93,.T.);
#123=ORIENTED_EDGE('',*,*,#89,.T.);
#124=ORIENTED_EDGE('',*,*,#88,.T.);
#125=ORIENTED_EDGE('',*,*,#93,.F.);
#126=ORIENTED_EDGE('',*,*,#90,.T.);
#127=ORIENTED_EDGE('',*,*,#92,.T.);
#128=ORIENTED_EDGE('',*,*,#94,.T.);
#129=ORIENTED_EDGE('',*,*,#81,.F.);
#130=ORIENTED_EDGE('',*,*,#82,.F.);
#131=ORIENTED_EDGE('',*,*,#94,.F.);
#132=ORIENTED_EDGE('',*,*,#91,.T.);
#133=CYLINDRICAL_SURFACE('',#173,3.5);
#134=CYLINDRICAL_SURFACE('',#185,9.5);
#135=CYLINDRICAL_SURFACE('',#191,7.50000000000001);
#136=STYLED_ITEM('',(#336),#145);
#137=STYLED_ITEM('',(#336),#146);
#138=STYLED_ITEM('',(#336),#147);
#139=STYLED_ITEM('',(#336),#148);
#140=STYLED_ITEM('',(#336),#149);
#141=STYLED_ITEM('',(#336),#150);
#142=STYLED_ITEM('',(#336),#151);
#143=STYLED_ITEM('',(#336),#152);
#144=STYLED_ITEM('',(#335),#13);
#145=ADVANCED_FACE('',(#21),#133,.F.);
#146=ADVANCED_FACE('',(#22),#17,.F.);
#147=ADVANCED_FACE('',(#23),#18,.T.);
#148=ADVANCED_FACE('',(#24,#15),#19,.T.);
#149=ADVANCED_FACE('',(#25),#134,.T.);
#150=ADVANCED_FACE('',(#26,#16),#20,.T.);
#151=ADVANCED_FACE('',(#27),#135,.T.);
#152=ADVANCED_FACE('',(#28),#14,.F.);
#153=CLOSED_SHELL('',(#145,#146,#147,#148,#149,#150,#151,#152));
#154=DERIVED_UNIT_ELEMENT(#156,1.);
#155=DERIVED_UNIT_ELEMENT(#321,3.);
#156=(
MASS_UNIT()
NAMED_UNIT(*)
SI_UNIT($,.GRAM.)
);
#157=DERIVED_UNIT((#154,#155));
#158=MEASURE_REPRESENTATION_ITEM('density measure',
POSITIVE_RATIO_MEASURE(1.),#157);
#159=PROPERTY_DEFINITION_REPRESENTATION(#164,#161);
#160=PROPERTY_DEFINITION_REPRESENTATION(#165,#162);
#161=REPRESENTATION('material name',(#163),#318);
#162=REPRESENTATION('density',(#158),#318);
#163=DESCRIPTIVE_REPRESENTATION_ITEM('Generic','Generic');
#164=PROPERTY_DEFINITION('material property','material name',#328);
#165=PROPERTY_DEFINITION('material property','density of part',#328);
#166=DATE_TIME_ROLE('creation_date');
#167=APPLIED_DATE_AND_TIME_ASSIGNMENT(#168,#166,(#328));
#168=DATE_AND_TIME(#169,#170);
#169=CALENDAR_DATE(2020,26,3);
#170=LOCAL_TIME(12,29,45.,#171);
#171=COORDINATED_UNIVERSAL_TIME_OFFSET(0,0,.BEHIND.);
#172=AXIS2_PLACEMENT_3D('placement',#247,#196,#197);
#173=AXIS2_PLACEMENT_3D('',#248,#198,#199);
#174=AXIS2_PLACEMENT_3D('',#251,#200,#201);
#175=AXIS2_PLACEMENT_3D('',#252,#202,#203);
#176=AXIS2_PLACEMENT_3D('',#256,#205,#206);
#177=AXIS2_PLACEMENT_3D('',#257,#207,#208);
#178=AXIS2_PLACEMENT_3D('',#258,#209,#210);
#179=AXIS2_PLACEMENT_3D('',#259,#211,#212);
#180=AXIS2_PLACEMENT_3D('',#262,#213,#214);
#181=AXIS2_PLACEMENT_3D('',#263,#215,#216);
#182=AXIS2_PLACEMENT_3D('',#264,#217,#218);
#183=AXIS2_PLACEMENT_3D('',#267,#219,#220);
#184=AXIS2_PLACEMENT_3D('',#268,#221,#222);
#185=AXIS2_PLACEMENT_3D('',#269,#223,#224);
#186=AXIS2_PLACEMENT_3D('',#272,#225,#226);
#187=AXIS2_PLACEMENT_3D('',#273,#227,#228);
#188=AXIS2_PLACEMENT_3D('',#275,#230,#231);
#189=AXIS2_PLACEMENT_3D('',#278,#232,#233);
#190=AXIS2_PLACEMENT_3D('',#279,#234,#235);
#191=AXIS2_PLACEMENT_3D('',#280,#236,#237);
#192=AXIS2_PLACEMENT_3D('',#283,#238,#239);
#193=AXIS2_PLACEMENT_3D('',#285,#240,#241);
#194=AXIS2_PLACEMENT_3D('',#286,#242,#243);
#195=AXIS2_PLACEMENT_3D('',#315,#245,#246);
#196=DIRECTION('axis',(0.,0.,1.));
#197=DIRECTION('refdir',(1.,0.,0.));
#198=DIRECTION('center_axis',(0.,-1.,2.22044604925031E-16));
#199=DIRECTION('ref_axis',(1.,0.,0.));
#200=DIRECTION('center_axis',(0.,-1.,0.));
#201=DIRECTION('ref_axis',(1.,0.,0.));
#202=DIRECTION('center_axis',(0.,-1.,0.));
#203=DIRECTION('ref_axis',(1.,0.,0.));
#204=DIRECTION('',(0.,-1.,2.22044604925031E-16));
#205=DIRECTION('center_axis',(0.,1.,-2.22044604925031E-16));
#206=DIRECTION('ref_axis',(1.,0.,0.));
#207=DIRECTION('center_axis',(0.,1.,-2.22044604925031E-16));
#208=DIRECTION('ref_axis',(1.,0.,0.));
#209=DIRECTION('center_axis',(0.,-1.,2.22044604925031E-16));
#210=DIRECTION('ref_axis',(0.,-2.22044604925031E-16,-1.));
#211=DIRECTION('center_axis',(0.,-1.,0.));
#212=DIRECTION('ref_axis',(0.,0.,-1.));
#213=DIRECTION('center_axis',(0.,-1.,0.));
#214=DIRECTION('ref_axis',(-1.,0.,0.));
#215=DIRECTION('center_axis',(0.,-1.,0.));
#216=DIRECTION('ref_axis',(-1.,0.,0.));
#217=DIRECTION('center_axis',(0.,1.,0.));
#218=DIRECTION('ref_axis',(0.,0.,1.));
#219=DIRECTION('center_axis',(0.,-1.,0.));
#220=DIRECTION('ref_axis',(-1.,0.,0.));
#221=DIRECTION('center_axis',(0.,-1.,0.));
#222=DIRECTION('ref_axis',(-1.,0.,0.));
#223=DIRECTION('center_axis',(0.,-1.,0.));
#224=DIRECTION('ref_axis',(-1.,0.,0.));
#225=DIRECTION('center_axis',(0.,-1.,0.));
#226=DIRECTION('ref_axis',(-1.,0.,0.));
#227=DIRECTION('center_axis',(0.,-1.,0.));
#228=DIRECTION('ref_axis',(-1.,0.,0.));
#229=DIRECTION('',(0.,1.,0.));
#230=DIRECTION('center_axis',(0.,-1.,0.));
#231=DIRECTION('ref_axis',(0.,0.,-1.));
#232=DIRECTION('center_axis',(0.,-1.,0.));
#233=DIRECTION('ref_axis',(-1.,0.,0.));
#234=DIRECTION('center_axis',(0.,-1.,0.));
#235=DIRECTION('ref_axis',(-1.,0.,0.));
#236=DIRECTION('center_axis',(0.,-1.,0.));
#237=DIRECTION('ref_axis',(-1.,0.,0.));
#238=DIRECTION('center_axis',(0.,-1.,0.));
#239=DIRECTION('ref_axis',(-1.,0.,0.));
#240=DIRECTION('center_axis',(0.,-1.,0.));
#241=DIRECTION('ref_axis',(-1.,0.,0.));
#242=DIRECTION('center_axis',(0.,-1.,0.));
#243=DIRECTION('ref_axis',(-1.,0.,0.));
#244=DIRECTION('',(0.,1.,0.));
#245=DIRECTION('center_axis',(1.,2.29007013126662E-17,1.22464679914735E-16));
#246=DIRECTION('ref_axis',(-1.22464679914735E-16,1.49937027971741E-15,1.));
#247=CARTESIAN_POINT('',(0.,0.,0.));
#248=CARTESIAN_POINT('Origin',(0.,16.5,0.));
#249=CARTESIAN_POINT('',(3.5,16.5,0.));
#250=CARTESIAN_POINT('',(-3.5,16.5,-4.28626379701574E-16));
#251=CARTESIAN_POINT('Origin',(0.,16.5,0.));
#252=CARTESIAN_POINT('Origin',(0.,16.5,0.));
#253=CARTESIAN_POINT('',(-3.5,7.99999999999997,1.4587527621612E-15));
#254=CARTESIAN_POINT('',(-3.5,16.5,-4.28626379701574E-16));
#255=CARTESIAN_POINT('',(3.5,7.99999999999997,1.88737914186277E-15));
#256=CARTESIAN_POINT('Origin',(0.,7.99999999999997,1.88737914186277E-15));
#257=CARTESIAN_POINT('Origin',(0.,7.99999999999997,1.88737914186277E-15));
#258=CARTESIAN_POINT('Origin',(0.,7.99999999999997,1.88737914186277E-15));
#259=CARTESIAN_POINT('Origin',(-8.5,-2.22044604925031E-15,0.));
#260=CARTESIAN_POINT('',(-17.,-4.44089209850063E-15,0.));
#261=CARTESIAN_POINT('',(-2.3661091388667E-15,-4.44089209850063E-15,17.));
#262=CARTESIAN_POINT('Origin',(0.,-4.44089209850063E-15,0.));
#263=CARTESIAN_POINT('Origin',(0.,-4.44089209850063E-15,0.));
#264=CARTESIAN_POINT('Origin',(-4.75000000000003,16.5,0.));
#265=CARTESIAN_POINT('',(-9.50000000000006,16.5,0.));
#266=CARTESIAN_POINT('',(9.5,16.5,1.16341445918999E-15));
#267=CARTESIAN_POINT('Origin',(0.,16.5,0.));
#268=CARTESIAN_POINT('Origin',(0.,16.5,0.));
#269=CARTESIAN_POINT('Origin',(0.,15.75,0.));
#270=CARTESIAN_POINT('',(-9.49999999999994,15.,0.));
#271=CARTESIAN_POINT('',(9.5,15.,1.16341445918999E-15));
#272=CARTESIAN_POINT('Origin',(0.,15.,0.));
#273=CARTESIAN_POINT('Origin',(0.,15.,0.));
#274=CARTESIAN_POINT('',(9.5,15.75,1.16341445918999E-15));
#275=CARTESIAN_POINT('Origin',(-8.49999999999997,15.,0.));
#276=CARTESIAN_POINT('',(-7.5,15.,0.));
#277=CARTESIAN_POINT('',(7.50000000000001,15.,9.18485099360516E-16));
#278=CARTESIAN_POINT('Origin',(0.,15.,0.));
#279=CARTESIAN_POINT('Origin',(0.,15.,0.));
#280=CARTESIAN_POINT('Origin',(0.,11.5,0.));
#281=CARTESIAN_POINT('',(-7.50000000000002,7.99999999999997,0.));
#282=CARTESIAN_POINT('',(7.50000000000001,7.99999999999997,9.18485099360516E-16));
#283=CARTESIAN_POINT('Origin',(0.,7.99999999999997,0.));
#284=CARTESIAN_POINT('',(-1.38590029017805E-15,7.99999999999997,7.50000000000002));
#285=CARTESIAN_POINT('Origin',(0.,7.99999999999997,0.));
#286=CARTESIAN_POINT('Origin',(0.,7.99999999999997,0.));
#287=CARTESIAN_POINT('',(7.50000000000001,11.5,9.18485099360516E-16));
#288=CARTESIAN_POINT('Ctrl Pts',(-4.67415190817529E-16,7.99999999999998,
7.49999999999998));
#289=CARTESIAN_POINT('Ctrl Pts',(-7.5,7.99999999999998,7.49999999999998));
#290=CARTESIAN_POINT('Ctrl Pts',(-7.5,7.99999999999997,-2.03971913498466E-14));
#291=CARTESIAN_POINT('Ctrl Pts',(-7.5,7.99999999999996,-7.50000000000002));
#292=CARTESIAN_POINT('Ctrl Pts',(-4.67415190817529E-16,7.99999999999996,
-7.50000000000002));
#293=CARTESIAN_POINT('Ctrl Pts',(7.5,7.99999999999996,-7.50000000000002));
#294=CARTESIAN_POINT('Ctrl Pts',(7.5,7.99999999999997,-2.03971913498466E-14));
#295=CARTESIAN_POINT('Ctrl Pts',(7.5,7.99999999999998,7.49999999999998));
#296=CARTESIAN_POINT('Ctrl Pts',(-4.67415190817529E-16,7.99999999999998,
7.49999999999998));
#297=CARTESIAN_POINT('Ctrl Pts',(-4.50245172399268E-16,7.25024049771068,
14.9870446296511));
#298=CARTESIAN_POINT('Ctrl Pts',(-14.9870446296511,7.25024049771068,14.9870446296511));
#299=CARTESIAN_POINT('Ctrl Pts',(-14.9870446296511,7.25024049771066,-1.92848063930725E-14));
#300=CARTESIAN_POINT('Ctrl Pts',(-14.9870446296511,7.25024049771064,-14.9870446296511));
#301=CARTESIAN_POINT('Ctrl Pts',(-4.50245172399268E-16,7.25024049771064,
-14.9870446296511));
#302=CARTESIAN_POINT('Ctrl Pts',(14.9870446296511,7.25024049771064,-14.9870446296511));
#303=CARTESIAN_POINT('Ctrl Pts',(14.9870446296511,7.25024049771066,-1.92848063930725E-14));
#304=CARTESIAN_POINT('Ctrl Pts',(14.9870446296511,7.25024049771068,14.9870446296511));
#305=CARTESIAN_POINT('Ctrl Pts',(-4.50245172399268E-16,7.25024049771068,
14.9870446296511));
#306=CARTESIAN_POINT('Ctrl Pts',(-2.842095803162E-16,-5.55111512312578E-15,
17.));
#307=CARTESIAN_POINT('Ctrl Pts',(-17.,-5.94042704544111E-15,17.));
#308=CARTESIAN_POINT('Ctrl Pts',(-17.,-3.09204450995071E-14,-8.52794577573833E-15));
#309=CARTESIAN_POINT('Ctrl Pts',(-17.,-5.59004631535731E-14,-17.));
#310=CARTESIAN_POINT('Ctrl Pts',(-2.842095803162E-16,-5.55111512312578E-14,
-17.));
#311=CARTESIAN_POINT('Ctrl Pts',(17.,-5.51218393089425E-14,-17.));
#312=CARTESIAN_POINT('Ctrl Pts',(17.,-3.01418212548765E-14,-8.52794577573833E-15));
#313=CARTESIAN_POINT('Ctrl Pts',(17.,-5.16180320081046E-15,17.));
#314=CARTESIAN_POINT('Ctrl Pts',(-2.842095803162E-16,-5.55111512312578E-15,
17.));
#315=CARTESIAN_POINT('Origin',(-1.0011383796312E-15,-2.94179400444122,6.40427873310216));
#316=UNCERTAINTY_MEASURE_WITH_UNIT(LENGTH_MEASURE(0.01),#320,
'DISTANCE_ACCURACY_VALUE',
'Maximum model space distance between geometric entities at asserted c
onnectivities');
#317=UNCERTAINTY_MEASURE_WITH_UNIT(LENGTH_MEASURE(0.01),#320,
'DISTANCE_ACCURACY_VALUE',
'Maximum model space distance between geometric entities at asserted c
onnectivities');
#318=(
GEOMETRIC_REPRESENTATION_CONTEXT(3)
GLOBAL_UNCERTAINTY_ASSIGNED_CONTEXT((#316))
GLOBAL_UNIT_ASSIGNED_CONTEXT((#320,#323,#322))
REPRESENTATION_CONTEXT('','3D')
);
#319=(
GEOMETRIC_REPRESENTATION_CONTEXT(3)
GLOBAL_UNCERTAINTY_ASSIGNED_CONTEXT((#317))
GLOBAL_UNIT_ASSIGNED_CONTEXT((#320,#323,#322))
REPRESENTATION_CONTEXT('','3D')
);
#320=(
LENGTH_UNIT()
NAMED_UNIT(*)
SI_UNIT(.MILLI.,.METRE.)
);
#321=(
LENGTH_UNIT()
NAMED_UNIT(*)
SI_UNIT(.CENTI.,.METRE.)
);
#322=(
NAMED_UNIT(*)
SI_UNIT($,.STERADIAN.)
SOLID_ANGLE_UNIT()
);
#323=(
NAMED_UNIT(*)
PLANE_ANGLE_UNIT()
SI_UNIT($,.RADIAN.)
);
#324=SHAPE_DEFINITION_REPRESENTATION(#325,#326);
#325=PRODUCT_DEFINITION_SHAPE('',$,#328);
#326=SHAPE_REPRESENTATION('',(#172),#318);
#327=PRODUCT_DEFINITION_CONTEXT('part definition',#332,'design');
#328=PRODUCT_DEFINITION('vs35sb','vs35sb',#329,#327);
#329=PRODUCT_DEFINITION_FORMATION('',$,#334);
#330=PRODUCT_RELATED_PRODUCT_CATEGORY('vs35sb','vs35sb',(#334));
#331=APPLICATION_PROTOCOL_DEFINITION('international standard',
'automotive_design',2009,#332);
#332=APPLICATION_CONTEXT(
'Core Data for Automotive Mechanical Design Process');
#333=PRODUCT_CONTEXT('part definition',#332,'mechanical');
#334=PRODUCT('vs35sb','vs35sb',$,(#333));
#335=PRESENTATION_STYLE_ASSIGNMENT((#337));
#336=PRESENTATION_STYLE_ASSIGNMENT((#338));
#337=SURFACE_STYLE_USAGE(.BOTH.,#339);
#338=SURFACE_STYLE_USAGE(.BOTH.,#340);
#339=SURFACE_SIDE_STYLE('',(#341));
#340=SURFACE_SIDE_STYLE('',(#342));
#341=SURFACE_STYLE_FILL_AREA(#343);
#342=SURFACE_STYLE_FILL_AREA(#344);
#343=FILL_AREA_STYLE('',(#345));
#344=FILL_AREA_STYLE('',(#346));
#345=FILL_AREA_STYLE_COLOUR('',#347);
#346=FILL_AREA_STYLE_COLOUR('',#348);
#347=COLOUR_RGB('',0.749019607843137,0.749019607843137,0.749019607843137);
#348=COLOUR_RGB('',0.235294117647059,0.486274509803922,0.607843137254902);
ENDSEC;
END-ISO-10303-21;
