ISO-10303-21;
HEADER;
/* Generated by software containing ST-Developer
 * from STEP Tools, Inc. (www.steptools.com) 
 */

FILE_DESCRIPTION(
/* description */ (''),
/* implementation_level */ '2;1');

FILE_NAME(
/* name */ 
'C:\\Users\\enginyeria\\Desktop\\stp ventosas roscas\\vsa45m14nit.stp',

/* time_stamp */ '2020-10-06T15:30:59+02:00',
/* author */ ('enginyeria'),
/* organization */ (''),
/* preprocessor_version */ 'ST-DEVELOPER v17.2',
/* originating_system */ 'Autodesk Inventor 2019',
/* authorisation */ '');

FILE_SCHEMA (('CONFIG_CONTROL_DESIGN'));
ENDSEC;

DATA;
#10=MECHANICAL_DESIGN_GEOMETRIC_PRESENTATION_REPRESENTATION('',(#225,#226,
#227,#228,#229,#230,#231,#232,#233,#234,#235,#236,#237,#238),#462);
#11=SHAPE_REPRESENTATION_RELATIONSHIP('SRR','None',#469,#12);
#12=ADVANCED_BREP_SHAPE_REPRESENTATION('',(#13),#461);
#13=MANIFOLD_SOLID_BREP('S\X\F3lido1',#252);
#14=TOROIDAL_SURFACE('',#300,22.5,1.);
#15=CONICAL_SURFACE('',#293,14.2499999999995,0.225276779214029);
#16=CONICAL_SURFACE('',#296,19.7499999999991,0.602287346134928);
#17=FACE_BOUND('',#48,.T.);
#18=FACE_BOUND('',#54,.T.);
#19=PLANE('',#277);
#20=PLANE('',#278);
#21=PLANE('',#279);
#22=PLANE('',#281);
#23=PLANE('',#284);
#24=PLANE('',#290);
#25=PLANE('',#304);
#26=PLANE('',#305);
#27=FACE_OUTER_BOUND('',#40,.T.);
#28=FACE_OUTER_BOUND('',#41,.T.);
#29=FACE_OUTER_BOUND('',#42,.T.);
#30=FACE_OUTER_BOUND('',#43,.T.);
#31=FACE_OUTER_BOUND('',#44,.T.);
#32=FACE_OUTER_BOUND('',#45,.T.);
#33=FACE_OUTER_BOUND('',#46,.T.);
#34=FACE_OUTER_BOUND('',#47,.T.);
#35=FACE_OUTER_BOUND('',#49,.T.);
#36=FACE_OUTER_BOUND('',#50,.T.);
#37=FACE_OUTER_BOUND('',#51,.T.);
#38=FACE_OUTER_BOUND('',#52,.T.);
#39=FACE_OUTER_BOUND('',#53,.T.);
#40=EDGE_LOOP('',(#157,#158,#159,#160,#161,#162));
#41=EDGE_LOOP('',(#163,#164));
#42=EDGE_LOOP('',(#165,#166,#167,#168));
#43=EDGE_LOOP('',(#169,#170));
#44=EDGE_LOOP('',(#171,#172,#173));
#45=EDGE_LOOP('',(#174,#175,#176,#177));
#46=EDGE_LOOP('',(#178,#179,#180,#181,#182,#183,#184,#185,#186,#187,#188,
#189,#190));
#47=EDGE_LOOP('',(#191,#192));
#48=EDGE_LOOP('',(#193,#194));
#49=EDGE_LOOP('',(#195,#196,#197,#198,#199,#200));
#50=EDGE_LOOP('',(#201,#202,#203,#204,#205,#206,#207));
#51=EDGE_LOOP('',(#208,#209,#210,#211,#212,#213,#214));
#52=EDGE_LOOP('',(#215,#216));
#53=EDGE_LOOP('',(#217,#218,#219,#220));
#54=EDGE_LOOP('',(#221,#222));
#55=LINE('',#395,#67);
#56=LINE('',#403,#68);
#57=LINE('',#405,#69);
#58=LINE('',#407,#70);
#59=LINE('',#408,#71);
#60=LINE('',#416,#72);
#61=LINE('',#420,#73);
#62=LINE('',#422,#74);
#63=LINE('',#423,#75);
#64=LINE('',#429,#76);
#65=LINE('',#442,#77);
#66=LINE('',#450,#78);
#67=VECTOR('',#314,5.9175);
#68=VECTOR('',#323,1.);
#69=VECTOR('',#324,1.);
#70=VECTOR('',#325,1.);
#71=VECTOR('',#326,1.);
#72=VECTOR('',#335,1.);
#73=VECTOR('',#340,1.);
#74=VECTOR('',#341,1.);
#75=VECTOR('',#342,1.);
#76=VECTOR('',#349,11.);
#77=VECTOR('',#366,14.2499999999995);
#78=VECTOR('',#375,19.7499999999991);
#79=CIRCLE('',#273,5.9175);
#80=CIRCLE('',#274,5.9175);
#81=CIRCLE('',#275,5.9175);
#82=CIRCLE('',#276,5.9175);
#83=CIRCLE('',#280,11.);
#84=CIRCLE('',#282,11.);
#85=CIRCLE('',#283,11.);
#86=CIRCLE('',#286,11.);
#87=CIRCLE('',#287,11.);
#88=CIRCLE('',#288,11.);
#89=CIRCLE('',#289,11.);
#90=CIRCLE('',#291,11.4999999999997);
#91=CIRCLE('',#292,11.4999999999997);
#92=CIRCLE('',#294,16.9999999999992);
#93=CIRCLE('',#295,16.9999999999992);
#94=CIRCLE('',#297,22.499999999999);
#95=CIRCLE('',#298,22.499999999999);
#96=CIRCLE('',#299,22.499999999999);
#97=CIRCLE('',#301,22.5);
#98=CIRCLE('',#302,22.5);
#99=CIRCLE('',#303,1.);
#100=VERTEX_POINT('',#390);
#101=VERTEX_POINT('',#391);
#102=VERTEX_POINT('',#394);
#103=VERTEX_POINT('',#396);
#104=VERTEX_POINT('',#401);
#105=VERTEX_POINT('',#402);
#106=VERTEX_POINT('',#404);
#107=VERTEX_POINT('',#406);
#108=VERTEX_POINT('',#412);
#109=VERTEX_POINT('',#413);
#110=VERTEX_POINT('',#415);
#111=VERTEX_POINT('',#419);
#112=VERTEX_POINT('',#421);
#113=VERTEX_POINT('',#425);
#114=VERTEX_POINT('',#426);
#115=VERTEX_POINT('',#433);
#116=VERTEX_POINT('',#434);
#117=VERTEX_POINT('',#438);
#118=VERTEX_POINT('',#439);
#119=VERTEX_POINT('',#444);
#120=VERTEX_POINT('',#445);
#121=VERTEX_POINT('',#447);
#122=VERTEX_POINT('',#452);
#123=VERTEX_POINT('',#453);
#124=EDGE_CURVE('',#100,#101,#79,.T.);
#125=EDGE_CURVE('',#101,#100,#80,.T.);
#126=EDGE_CURVE('',#101,#102,#55,.T.);
#127=EDGE_CURVE('',#103,#102,#81,.T.);
#128=EDGE_CURVE('',#102,#103,#82,.T.);
#129=EDGE_CURVE('',#104,#105,#56,.T.);
#130=EDGE_CURVE('',#106,#104,#57,.T.);
#131=EDGE_CURVE('',#107,#106,#58,.T.);
#132=EDGE_CURVE('',#107,#105,#59,.T.);
#133=EDGE_CURVE('',#105,#107,#83,.T.);
#134=EDGE_CURVE('',#108,#109,#84,.T.);
#135=EDGE_CURVE('',#108,#110,#60,.T.);
#136=EDGE_CURVE('',#109,#110,#85,.T.);
#137=EDGE_CURVE('',#111,#108,#61,.T.);
#138=EDGE_CURVE('',#112,#111,#62,.T.);
#139=EDGE_CURVE('',#110,#112,#63,.T.);
#140=EDGE_CURVE('',#113,#114,#86,.T.);
#141=EDGE_CURVE('',#114,#113,#87,.T.);
#142=EDGE_CURVE('',#114,#109,#64,.T.);
#143=EDGE_CURVE('',#112,#104,#88,.T.);
#144=EDGE_CURVE('',#106,#111,#89,.T.);
#145=EDGE_CURVE('',#115,#116,#90,.T.);
#146=EDGE_CURVE('',#116,#115,#91,.T.);
#147=EDGE_CURVE('',#117,#118,#92,.T.);
#148=EDGE_CURVE('',#118,#117,#93,.T.);
#149=EDGE_CURVE('',#118,#116,#65,.T.);
#150=EDGE_CURVE('',#119,#120,#94,.T.);
#151=EDGE_CURVE('',#121,#119,#95,.T.);
#152=EDGE_CURVE('',#120,#121,#96,.T.);
#153=EDGE_CURVE('',#120,#118,#66,.T.);
#154=EDGE_CURVE('',#122,#123,#97,.T.);
#155=EDGE_CURVE('',#123,#122,#98,.T.);
#156=EDGE_CURVE('',#123,#121,#99,.T.);
#157=ORIENTED_EDGE('',*,*,#124,.F.);
#158=ORIENTED_EDGE('',*,*,#125,.F.);
#159=ORIENTED_EDGE('',*,*,#126,.T.);
#160=ORIENTED_EDGE('',*,*,#127,.F.);
#161=ORIENTED_EDGE('',*,*,#128,.F.);
#162=ORIENTED_EDGE('',*,*,#126,.F.);
#163=ORIENTED_EDGE('',*,*,#127,.T.);
#164=ORIENTED_EDGE('',*,*,#128,.T.);
#165=ORIENTED_EDGE('',*,*,#129,.F.);
#166=ORIENTED_EDGE('',*,*,#130,.F.);
#167=ORIENTED_EDGE('',*,*,#131,.F.);
#168=ORIENTED_EDGE('',*,*,#132,.T.);
#169=ORIENTED_EDGE('',*,*,#133,.F.);
#170=ORIENTED_EDGE('',*,*,#132,.F.);
#171=ORIENTED_EDGE('',*,*,#134,.F.);
#172=ORIENTED_EDGE('',*,*,#135,.T.);
#173=ORIENTED_EDGE('',*,*,#136,.F.);
#174=ORIENTED_EDGE('',*,*,#137,.F.);
#175=ORIENTED_EDGE('',*,*,#138,.F.);
#176=ORIENTED_EDGE('',*,*,#139,.F.);
#177=ORIENTED_EDGE('',*,*,#135,.F.);
#178=ORIENTED_EDGE('',*,*,#140,.F.);
#179=ORIENTED_EDGE('',*,*,#141,.F.);
#180=ORIENTED_EDGE('',*,*,#142,.T.);
#181=ORIENTED_EDGE('',*,*,#136,.T.);
#182=ORIENTED_EDGE('',*,*,#139,.T.);
#183=ORIENTED_EDGE('',*,*,#143,.T.);
#184=ORIENTED_EDGE('',*,*,#129,.T.);
#185=ORIENTED_EDGE('',*,*,#133,.T.);
#186=ORIENTED_EDGE('',*,*,#131,.T.);
#187=ORIENTED_EDGE('',*,*,#144,.T.);
#188=ORIENTED_EDGE('',*,*,#137,.T.);
#189=ORIENTED_EDGE('',*,*,#134,.T.);
#190=ORIENTED_EDGE('',*,*,#142,.F.);
#191=ORIENTED_EDGE('',*,*,#145,.F.);
#192=ORIENTED_EDGE('',*,*,#146,.F.);
#193=ORIENTED_EDGE('',*,*,#140,.T.);
#194=ORIENTED_EDGE('',*,*,#141,.T.);
#195=ORIENTED_EDGE('',*,*,#147,.F.);
#196=ORIENTED_EDGE('',*,*,#148,.F.);
#197=ORIENTED_EDGE('',*,*,#149,.T.);
#198=ORIENTED_EDGE('',*,*,#146,.T.);
#199=ORIENTED_EDGE('',*,*,#145,.T.);
#200=ORIENTED_EDGE('',*,*,#149,.F.);
#201=ORIENTED_EDGE('',*,*,#150,.F.);
#202=ORIENTED_EDGE('',*,*,#151,.F.);
#203=ORIENTED_EDGE('',*,*,#152,.F.);
#204=ORIENTED_EDGE('',*,*,#153,.T.);
#205=ORIENTED_EDGE('',*,*,#148,.T.);
#206=ORIENTED_EDGE('',*,*,#147,.T.);
#207=ORIENTED_EDGE('',*,*,#153,.F.);
#208=ORIENTED_EDGE('',*,*,#154,.F.);
#209=ORIENTED_EDGE('',*,*,#155,.F.);
#210=ORIENTED_EDGE('',*,*,#156,.T.);
#211=ORIENTED_EDGE('',*,*,#151,.T.);
#212=ORIENTED_EDGE('',*,*,#150,.T.);
#213=ORIENTED_EDGE('',*,*,#152,.T.);
#214=ORIENTED_EDGE('',*,*,#156,.F.);
#215=ORIENTED_EDGE('',*,*,#154,.T.);
#216=ORIENTED_EDGE('',*,*,#155,.T.);
#217=ORIENTED_EDGE('',*,*,#130,.T.);
#218=ORIENTED_EDGE('',*,*,#143,.F.);
#219=ORIENTED_EDGE('',*,*,#138,.T.);
#220=ORIENTED_EDGE('',*,*,#144,.F.);
#221=ORIENTED_EDGE('',*,*,#124,.T.);
#222=ORIENTED_EDGE('',*,*,#125,.T.);
#223=CYLINDRICAL_SURFACE('',#272,5.9175);
#224=CYLINDRICAL_SURFACE('',#285,11.);
#225=STYLED_ITEM('',(#479),#239);
#226=STYLED_ITEM('',(#480),#240);
#227=STYLED_ITEM('',(#479),#241);
#228=STYLED_ITEM('',(#479),#242);
#229=STYLED_ITEM('',(#479),#243);
#230=STYLED_ITEM('',(#479),#244);
#231=STYLED_ITEM('',(#479),#245);
#232=STYLED_ITEM('',(#480),#246);
#233=STYLED_ITEM('',(#480),#247);
#234=STYLED_ITEM('',(#480),#248);
#235=STYLED_ITEM('',(#480),#249);
#236=STYLED_ITEM('',(#480),#250);
#237=STYLED_ITEM('',(#479),#251);
#238=STYLED_ITEM('',(#478),#13);
#239=ADVANCED_FACE('',(#27),#223,.F.);
#240=ADVANCED_FACE('',(#28),#19,.F.);
#241=ADVANCED_FACE('',(#29),#20,.F.);
#242=ADVANCED_FACE('',(#30),#21,.F.);
#243=ADVANCED_FACE('',(#31),#22,.F.);
#244=ADVANCED_FACE('',(#32),#23,.F.);
#245=ADVANCED_FACE('',(#33),#224,.T.);
#246=ADVANCED_FACE('',(#34,#17),#24,.T.);
#247=ADVANCED_FACE('',(#35),#15,.T.);
#248=ADVANCED_FACE('',(#36),#16,.T.);
#249=ADVANCED_FACE('',(#37),#14,.T.);
#250=ADVANCED_FACE('',(#38),#25,.T.);
#251=ADVANCED_FACE('',(#39,#18),#26,.T.);
#252=CLOSED_SHELL('',(#239,#240,#241,#242,#243,#244,#245,#246,#247,#248,
#249,#250,#251));
#253=DERIVED_UNIT_ELEMENT(#255,1.);
#254=DERIVED_UNIT_ELEMENT(#464,3.);
#255=(
MASS_UNIT()
NAMED_UNIT(*)
SI_UNIT($,.GRAM.)
);
#256=DERIVED_UNIT((#253,#254));
#257=MEASURE_REPRESENTATION_ITEM('density measure',
POSITIVE_RATIO_MEASURE(1.),#256);
#258=PROPERTY_DEFINITION_REPRESENTATION(#263,#260);
#259=PROPERTY_DEFINITION_REPRESENTATION(#264,#261);
#260=REPRESENTATION('material name',(#262),#461);
#261=REPRESENTATION('density',(#257),#461);
#262=DESCRIPTIVE_REPRESENTATION_ITEM('Generic','Generic');
#263=PROPERTY_DEFINITION('material property','material name',#471);
#264=PROPERTY_DEFINITION('material property','density of part',#471);
#265=DATE_TIME_ROLE('creation_date');
#266=CC_DESIGN_DATE_AND_TIME_ASSIGNMENT(#267,#265,(#471));
#267=DATE_AND_TIME(#268,#269);
#268=CALENDAR_DATE(2020,26,3);
#269=LOCAL_TIME(9,31,57.,#270);
#270=COORDINATED_UNIVERSAL_TIME_OFFSET(0,0,.BEHIND.);
#271=AXIS2_PLACEMENT_3D('placement',#388,#306,#307);
#272=AXIS2_PLACEMENT_3D('',#389,#308,#309);
#273=AXIS2_PLACEMENT_3D('',#392,#310,#311);
#274=AXIS2_PLACEMENT_3D('',#393,#312,#313);
#275=AXIS2_PLACEMENT_3D('',#397,#315,#316);
#276=AXIS2_PLACEMENT_3D('',#398,#317,#318);
#277=AXIS2_PLACEMENT_3D('',#399,#319,#320);
#278=AXIS2_PLACEMENT_3D('',#400,#321,#322);
#279=AXIS2_PLACEMENT_3D('',#409,#327,#328);
#280=AXIS2_PLACEMENT_3D('',#410,#329,#330);
#281=AXIS2_PLACEMENT_3D('',#411,#331,#332);
#282=AXIS2_PLACEMENT_3D('',#414,#333,#334);
#283=AXIS2_PLACEMENT_3D('',#417,#336,#337);
#284=AXIS2_PLACEMENT_3D('',#418,#338,#339);
#285=AXIS2_PLACEMENT_3D('',#424,#343,#344);
#286=AXIS2_PLACEMENT_3D('',#427,#345,#346);
#287=AXIS2_PLACEMENT_3D('',#428,#347,#348);
#288=AXIS2_PLACEMENT_3D('',#430,#350,#351);
#289=AXIS2_PLACEMENT_3D('',#431,#352,#353);
#290=AXIS2_PLACEMENT_3D('',#432,#354,#355);
#291=AXIS2_PLACEMENT_3D('',#435,#356,#357);
#292=AXIS2_PLACEMENT_3D('',#436,#358,#359);
#293=AXIS2_PLACEMENT_3D('',#437,#360,#361);
#294=AXIS2_PLACEMENT_3D('',#440,#362,#363);
#295=AXIS2_PLACEMENT_3D('',#441,#364,#365);
#296=AXIS2_PLACEMENT_3D('',#443,#367,#368);
#297=AXIS2_PLACEMENT_3D('',#446,#369,#370);
#298=AXIS2_PLACEMENT_3D('',#448,#371,#372);
#299=AXIS2_PLACEMENT_3D('',#449,#373,#374);
#300=AXIS2_PLACEMENT_3D('',#451,#376,#377);
#301=AXIS2_PLACEMENT_3D('',#454,#378,#379);
#302=AXIS2_PLACEMENT_3D('',#455,#380,#381);
#303=AXIS2_PLACEMENT_3D('',#456,#382,#383);
#304=AXIS2_PLACEMENT_3D('',#457,#384,#385);
#305=AXIS2_PLACEMENT_3D('',#458,#386,#387);
#306=DIRECTION('axis',(0.,0.,1.));
#307=DIRECTION('refdir',(1.,0.,0.));
#308=DIRECTION('center_axis',(0.,-1.,2.22044604925031E-16));
#309=DIRECTION('ref_axis',(1.,0.,0.));
#310=DIRECTION('center_axis',(-6.45947941600091E-16,-1.,0.));
#311=DIRECTION('ref_axis',(1.,-6.45947941600091E-16,0.));
#312=DIRECTION('center_axis',(-6.45947941600091E-16,-1.,0.));
#313=DIRECTION('ref_axis',(1.,-6.45947941600091E-16,0.));
#314=DIRECTION('',(0.,-1.,2.22044604925031E-16));
#315=DIRECTION('center_axis',(0.,1.,-2.22044604925031E-16));
#316=DIRECTION('ref_axis',(1.,0.,0.));
#317=DIRECTION('center_axis',(0.,1.,-2.22044604925031E-16));
#318=DIRECTION('ref_axis',(1.,0.,0.));
#319=DIRECTION('center_axis',(0.,-1.,2.22044604925031E-16));
#320=DIRECTION('ref_axis',(0.,-2.22044604925031E-16,-1.));
#321=DIRECTION('center_axis',(1.,0.,0.));
#322=DIRECTION('ref_axis',(0.,0.,-1.));
#323=DIRECTION('',(-6.4594794160009E-16,-1.,0.));
#324=DIRECTION('',(0.,0.,1.));
#325=DIRECTION('',(6.4594794160009E-16,1.,0.));
#326=DIRECTION('',(0.,0.,1.));
#327=DIRECTION('center_axis',(0.,-1.,0.));
#328=DIRECTION('ref_axis',(0.,0.,-1.));
#329=DIRECTION('center_axis',(0.,-1.,0.));
#330=DIRECTION('ref_axis',(-1.,0.,0.));
#331=DIRECTION('center_axis',(0.,-1.,0.));
#332=DIRECTION('ref_axis',(0.,0.,-1.));
#333=DIRECTION('center_axis',(0.,-1.,0.));
#334=DIRECTION('ref_axis',(-1.,0.,0.));
#335=DIRECTION('',(0.,0.,1.));
#336=DIRECTION('center_axis',(0.,-1.,0.));
#337=DIRECTION('ref_axis',(-1.,0.,0.));
#338=DIRECTION('center_axis',(-1.,0.,0.));
#339=DIRECTION('ref_axis',(0.,0.,1.));
#340=DIRECTION('',(-6.4594794160009E-16,-1.,0.));
#341=DIRECTION('',(0.,0.,-1.));
#342=DIRECTION('',(6.4594794160009E-16,1.,0.));
#343=DIRECTION('center_axis',(-6.45947941600091E-16,-1.,0.));
#344=DIRECTION('ref_axis',(-1.,6.45947941600091E-16,0.));
#345=DIRECTION('center_axis',(-6.45947941600091E-16,-1.,0.));
#346=DIRECTION('ref_axis',(-1.,6.45947941600091E-16,0.));
#347=DIRECTION('center_axis',(-6.45947941600091E-16,-1.,0.));
#348=DIRECTION('ref_axis',(-1.,6.45947941600091E-16,0.));
#349=DIRECTION('',(6.45947941600091E-16,1.,0.));
#350=DIRECTION('center_axis',(-6.45947941600091E-16,-1.,0.));
#351=DIRECTION('ref_axis',(-1.,6.45947941600091E-16,0.));
#352=DIRECTION('center_axis',(-6.45947941600091E-16,-1.,0.));
#353=DIRECTION('ref_axis',(-1.,6.45947941600091E-16,0.));
#354=DIRECTION('center_axis',(6.45947941600091E-16,1.,0.));
#355=DIRECTION('ref_axis',(0.,0.,1.));
#356=DIRECTION('center_axis',(-6.45947941600091E-16,-1.,0.));
#357=DIRECTION('ref_axis',(-1.,6.45947941600091E-16,0.));
#358=DIRECTION('center_axis',(-6.45947941600091E-16,-1.,0.));
#359=DIRECTION('ref_axis',(-1.,6.45947941600091E-16,0.));
#360=DIRECTION('center_axis',(-6.45947941600091E-16,-1.,0.));
#361=DIRECTION('ref_axis',(-1.,6.45947941600091E-16,0.));
#362=DIRECTION('center_axis',(-6.45947941600091E-16,-1.,0.));
#363=DIRECTION('ref_axis',(-1.,6.45947941600091E-16,0.));
#364=DIRECTION('center_axis',(-6.45947941600091E-16,-1.,0.));
#365=DIRECTION('ref_axis',(-1.,6.45947941600091E-16,0.));
#366=DIRECTION('',(-0.22337615632937,0.97473231852828,-2.73556894854602E-17));
#367=DIRECTION('center_axis',(-6.45947941600091E-16,-1.,0.));
#368=DIRECTION('ref_axis',(-1.,6.45947941600091E-16,0.));
#369=DIRECTION('center_axis',(-6.45947941600091E-16,-1.,0.));
#370=DIRECTION('ref_axis',(-1.,6.45947941600091E-16,0.));
#371=DIRECTION('center_axis',(-6.45947941600091E-16,-1.,0.));
#372=DIRECTION('ref_axis',(-1.,6.45947941600091E-16,0.));
#373=DIRECTION('center_axis',(-6.45947941600091E-16,-1.,0.));
#374=DIRECTION('ref_axis',(-1.,6.45947941600091E-16,0.));
#375=DIRECTION('',(-0.566528822887035,0.824041924199389,-6.93797709573326E-17));
#376=DIRECTION('center_axis',(-6.45947941600091E-16,-1.,0.));
#377=DIRECTION('ref_axis',(0.,0.,-1.));
#378=DIRECTION('center_axis',(-6.45947941600091E-16,-1.,0.));
#379=DIRECTION('ref_axis',(-1.,6.45947941600091E-16,0.));
#380=DIRECTION('center_axis',(-6.45947941600091E-16,-1.,0.));
#381=DIRECTION('ref_axis',(-1.,6.45947941600091E-16,0.));
#382=DIRECTION('center_axis',(-1.,6.45947941600091E-16,-1.22464679914735E-16));
#383=DIRECTION('ref_axis',(-1.22464679914735E-16,0.,1.));
#384=DIRECTION('center_axis',(-6.45947941600091E-16,-1.,0.));
#385=DIRECTION('ref_axis',(0.,0.,-1.));
#386=DIRECTION('center_axis',(6.45947941600091E-16,1.,0.));
#387=DIRECTION('ref_axis',(0.,0.,1.));
#388=CARTESIAN_POINT('',(0.,0.,0.));
#389=CARTESIAN_POINT('Origin',(2.71298135472038E-14,40.,0.));
#390=CARTESIAN_POINT('',(5.91750000000003,40.,0.));
#391=CARTESIAN_POINT('',(-5.91749999999997,40.,-7.24684743395447E-16));
#392=CARTESIAN_POINT('Origin',(2.71298135472038E-14,40.,-1.57772181044202E-30));
#393=CARTESIAN_POINT('Origin',(2.71298135472038E-14,40.,-1.57772181044202E-30));
#394=CARTESIAN_POINT('',(-5.91749999999997,31.,1.27371670092983E-15));
#395=CARTESIAN_POINT('',(-5.91749999999997,40.,-7.24684743395446E-16));
#396=CARTESIAN_POINT('',(5.91750000000003,31.,1.99840144432528E-15));
#397=CARTESIAN_POINT('Origin',(2.71298135472038E-14,31.,1.99840144432528E-15));
#398=CARTESIAN_POINT('Origin',(2.71298135472038E-14,31.,1.99840144432528E-15));
#399=CARTESIAN_POINT('Origin',(2.71298135472038E-14,31.,1.99840144432528E-15));
#400=CARTESIAN_POINT('Origin',(-9.5,40.,-25.));
#401=CARTESIAN_POINT('',(-9.5,40.,5.54526825320471));
#402=CARTESIAN_POINT('',(-9.5,36.,5.54526825320472));
#403=CARTESIAN_POINT('',(-9.5,35.,5.54526825320472));
#404=CARTESIAN_POINT('',(-9.5,40.,-5.54526825320471));
#405=CARTESIAN_POINT('',(-9.5,40.,-12.5));
#406=CARTESIAN_POINT('',(-9.5,36.,-5.54526825320472));
#407=CARTESIAN_POINT('',(-9.5,35.,-5.54526825320472));
#408=CARTESIAN_POINT('',(-9.5,36.,-25.));
#409=CARTESIAN_POINT('Origin',(-9.5,36.,-25.));
#410=CARTESIAN_POINT('Origin',(2.45460217808035E-14,36.,0.));
#411=CARTESIAN_POINT('Origin',(11.,36.,-25.));
#412=CARTESIAN_POINT('',(9.5,36.,-5.54526825320479));
#413=CARTESIAN_POINT('',(11.,36.,1.34711147906209E-15));
#414=CARTESIAN_POINT('Origin',(2.45460217808035E-14,36.,0.));
#415=CARTESIAN_POINT('',(9.5,36.,5.54526825320479));
#416=CARTESIAN_POINT('',(9.5,36.,-25.));
#417=CARTESIAN_POINT('Origin',(2.45460217808035E-14,36.,0.));
#418=CARTESIAN_POINT('Origin',(9.5,36.,-25.));
#419=CARTESIAN_POINT('',(9.5,40.,-5.54526825320481));
#420=CARTESIAN_POINT('',(9.5,35.,-5.54526825320479));
#421=CARTESIAN_POINT('',(9.5,40.,5.54526825320481));
#422=CARTESIAN_POINT('',(9.5,40.,-12.5));
#423=CARTESIAN_POINT('',(9.5,35.,5.54526825320479));
#424=CARTESIAN_POINT('Origin',(2.39000738392034E-14,35.,0.));
#425=CARTESIAN_POINT('',(-11.,34.,0.));
#426=CARTESIAN_POINT('',(11.,34.,1.34711147906209E-15));
#427=CARTESIAN_POINT('Origin',(2.32541258976033E-14,34.,0.));
#428=CARTESIAN_POINT('Origin',(2.32541258976033E-14,34.,0.));
#429=CARTESIAN_POINT('',(11.,35.,1.34711147906209E-15));
#430=CARTESIAN_POINT('Origin',(2.71298135472038E-14,40.,0.));
#431=CARTESIAN_POINT('Origin',(2.71298135472038E-14,40.,0.));
#432=CARTESIAN_POINT('Origin',(-11.2499999999999,34.,0.));
#433=CARTESIAN_POINT('',(-11.4999999999997,34.,0.));
#434=CARTESIAN_POINT('',(11.4999999999998,34.,1.40834381901943E-15));
#435=CARTESIAN_POINT('Origin',(2.32541258976033E-14,34.,0.));
#436=CARTESIAN_POINT('Origin',(2.32541258976033E-14,34.,0.));
#437=CARTESIAN_POINT('Origin',(1.5502750598402E-14,21.9999999999998,0.));
#438=CARTESIAN_POINT('',(-16.9999999999992,9.99999999999955,0.));
#439=CARTESIAN_POINT('',(16.9999999999992,9.99999999999952,2.08189955855041E-15));
#440=CARTESIAN_POINT('Origin',(7.75137529920081E-15,9.99999999999953,0.));
#441=CARTESIAN_POINT('Origin',(7.75137529920081E-15,9.99999999999953,0.));
#442=CARTESIAN_POINT('',(14.2499999999995,21.9999999999998,1.74512168878492E-15));
#443=CARTESIAN_POINT('Origin',(5.16758353280036E-15,5.99999999999939,0.));
#444=CARTESIAN_POINT('',(-22.4999999999989,1.99999999999926,0.));
#445=CARTESIAN_POINT('',(22.499999999999,1.99999999999923,2.75545529808142E-15));
#446=CARTESIAN_POINT('Origin',(2.5837917663999E-15,1.99999999999925,0.));
#447=CARTESIAN_POINT('',(-2.10950735648184E-15,1.99999999999925,22.499999999999));
#448=CARTESIAN_POINT('Origin',(2.5837917663999E-15,1.99999999999925,0.));
#449=CARTESIAN_POINT('Origin',(2.5837917663999E-15,1.99999999999925,0.));
#450=CARTESIAN_POINT('',(19.7499999999991,5.99999999999938,2.41867742831591E-15));
#451=CARTESIAN_POINT('Origin',(0.,1.00000000000004,0.));
#452=CARTESIAN_POINT('',(-22.5,5.6843418860808E-14,0.));
#453=CARTESIAN_POINT('',(-3.40140323968163E-15,4.23272528138341E-14,22.5));
#454=CARTESIAN_POINT('Origin',(1.29189588320024E-15,4.2309590174806E-14,
0.));
#455=CARTESIAN_POINT('Origin',(1.29189588320024E-15,4.2309590174806E-14,
0.));
#456=CARTESIAN_POINT('Origin',(-2.75545529808154E-15,1.00000000000004,22.5));
#457=CARTESIAN_POINT('Origin',(-11.25,2.8421709430404E-14,0.));
#458=CARTESIAN_POINT('Origin',(-10.25,40.,0.));
#459=UNCERTAINTY_MEASURE_WITH_UNIT(LENGTH_MEASURE(0.01),#463,
'DISTANCE_ACCURACY_VALUE',
'Maximum model space distance between geometric entities at asserted c
onnectivities');
#460=UNCERTAINTY_MEASURE_WITH_UNIT(LENGTH_MEASURE(0.01),#463,
'DISTANCE_ACCURACY_VALUE',
'Maximum model space distance between geometric entities at asserted c
onnectivities');
#461=(
GEOMETRIC_REPRESENTATION_CONTEXT(3)
GLOBAL_UNCERTAINTY_ASSIGNED_CONTEXT((#459))
GLOBAL_UNIT_ASSIGNED_CONTEXT((#463,#465,#466))
REPRESENTATION_CONTEXT('','3D')
);
#462=(
GEOMETRIC_REPRESENTATION_CONTEXT(3)
GLOBAL_UNCERTAINTY_ASSIGNED_CONTEXT((#460))
GLOBAL_UNIT_ASSIGNED_CONTEXT((#463,#465,#466))
REPRESENTATION_CONTEXT('','3D')
);
#463=(
LENGTH_UNIT()
NAMED_UNIT(*)
SI_UNIT(.MILLI.,.METRE.)
);
#464=(
LENGTH_UNIT()
NAMED_UNIT(*)
SI_UNIT(.CENTI.,.METRE.)
);
#465=(
NAMED_UNIT(*)
PLANE_ANGLE_UNIT()
SI_UNIT($,.RADIAN.)
);
#466=(
NAMED_UNIT(*)
SI_UNIT($,.STERADIAN.)
SOLID_ANGLE_UNIT()
);
#467=SHAPE_DEFINITION_REPRESENTATION(#468,#469);
#468=PRODUCT_DEFINITION_SHAPE('',$,#471);
#469=SHAPE_REPRESENTATION('',(#271),#461);
#470=DESIGN_CONTEXT('part definition',#475,'design');
#471=PRODUCT_DEFINITION('vsa45m14cn','vsa45m14cn',#472,#470);
#472=PRODUCT_DEFINITION_FORMATION('',$,#477);
#473=PRODUCT_RELATED_PRODUCT_CATEGORY('vsa45m14cn','vsa45m14cn',(#477));
#474=APPLICATION_PROTOCOL_DEFINITION('international standard',
'ap203_configuration_controlled_3d_design_of_mechanical_parts_and_asse
mblies_mim_lf',2004,#475);
#475=APPLICATION_CONTEXT(
'Configuration Controlled 3D Design of Mechanical Parts and Assemblies');
#476=MECHANICAL_CONTEXT('part definition',#475,'mechanical');
#477=PRODUCT('vsa45m14cn','vsa45m14cn',$,(#476));
#478=PRESENTATION_STYLE_ASSIGNMENT((#481));
#479=PRESENTATION_STYLE_ASSIGNMENT((#482));
#480=PRESENTATION_STYLE_ASSIGNMENT((#483));
#481=SURFACE_STYLE_USAGE(.BOTH.,#490);
#482=SURFACE_STYLE_USAGE(.BOTH.,#491);
#483=SURFACE_STYLE_USAGE(.BOTH.,#492);
#484=SURFACE_STYLE_RENDERING_WITH_PROPERTIES($,#502,(#487));
#485=SURFACE_STYLE_RENDERING_WITH_PROPERTIES($,#503,(#488));
#486=SURFACE_STYLE_RENDERING_WITH_PROPERTIES($,#504,(#489));
#487=SURFACE_STYLE_TRANSPARENT(0.);
#488=SURFACE_STYLE_TRANSPARENT(0.);
#489=SURFACE_STYLE_TRANSPARENT(0.);
#490=SURFACE_SIDE_STYLE('',(#493,#484));
#491=SURFACE_SIDE_STYLE('',(#494,#485));
#492=SURFACE_SIDE_STYLE('',(#495,#486));
#493=SURFACE_STYLE_FILL_AREA(#496);
#494=SURFACE_STYLE_FILL_AREA(#497);
#495=SURFACE_STYLE_FILL_AREA(#498);
#496=FILL_AREA_STYLE('',(#499));
#497=FILL_AREA_STYLE('',(#500));
#498=FILL_AREA_STYLE('',(#501));
#499=FILL_AREA_STYLE_COLOUR('',#502);
#500=FILL_AREA_STYLE_COLOUR('',#503);
#501=FILL_AREA_STYLE_COLOUR('',#504);
#502=COLOUR_RGB('',0.235294117647059,0.486274509803922,0.607843137254902);
#503=COLOUR_RGB('',0.745098039215686,0.737254901960784,0.729411764705882);
#504=COLOUR_RGB('',0.32156862745098,0.32156862745098,0.32156862745098);
ENDSEC;
END-ISO-10303-21;
