ISO-10303-21;
HEADER;
/* Generated by software containing ST-Developer
 * from STEP Tools, Inc. (www.steptools.com) 
 */

FILE_DESCRIPTION(
/* description */ (''),
/* implementation_level */ '2;1');

FILE_NAME(
/* name */ 
'C:\\Users\\enginyeria\\Desktop\\stp ventosas roscas\\vsa45r3-8nit.stp',

/* time_stamp */ '2020-10-06T15:45:16+02:00',
/* author */ ('enginyeria'),
/* organization */ (''),
/* preprocessor_version */ 'ST-DEVELOPER v17.2',
/* originating_system */ 'Autodesk Inventor 2019',
/* authorisation */ '');

FILE_SCHEMA (('CONFIG_CONTROL_DESIGN'));
ENDSEC;

DATA;
#10=MECHANICAL_DESIGN_GEOMETRIC_PRESENTATION_REPRESENTATION('',(#15,#16,
#17,#18,#19,#20),#547);
#11=SHAPE_REPRESENTATION_RELATIONSHIP('SRR','None',#554,#12);
#12=ADVANCED_BREP_SHAPE_REPRESENTATION('',(#13),#546);
#13=MANIFOLD_SOLID_BREP('S\X\F3lido2',#294);
#14=TOROIDAL_SURFACE('',#349,22.5,1.);
#15=STYLED_ITEM('',(#565),#289);
#16=STYLED_ITEM('',(#566),#290);
#17=STYLED_ITEM('',(#566),#291);
#18=STYLED_ITEM('',(#566),#292);
#19=STYLED_ITEM('',(#566),#293);
#20=STYLED_ITEM('',(#564),#13);
#21=CYLINDRICAL_SURFACE('',#326,7.475);
#22=CYLINDRICAL_SURFACE('',#336,11.);
#23=FACE_BOUND('',#77,.T.);
#24=FACE_BOUND('',#88,.T.);
#25=LINE('',#465,#38);
#26=LINE('',#468,#39);
#27=LINE('',#473,#40);
#28=LINE('',#475,#41);
#29=LINE('',#477,#42);
#30=LINE('',#491,#43);
#31=LINE('',#495,#44);
#32=LINE('',#502,#45);
#33=LINE('',#504,#46);
#34=LINE('',#505,#47);
#35=LINE('',#517,#48);
#36=LINE('',#528,#49);
#37=LINE('',#536,#50);
#38=VECTOR('',#364,10.2742396312333);
#39=VECTOR('',#367,10.2742396312331);
#40=VECTOR('',#372,3.79999999999999);
#41=VECTOR('',#373,11.0905365064096);
#42=VECTOR('',#374,3.79999999999999);
#43=VECTOR('',#383,7.725);
#44=VECTOR('',#388,7.475);
#45=VECTOR('',#397,3.8);
#46=VECTOR('',#398,11.0905365064094);
#47=VECTOR('',#399,3.8);
#48=VECTOR('',#416,11.);
#49=VECTOR('',#429,14.2499999999995);
#50=VECTOR('',#438,19.7499999999991);
#51=PLANE('',#317);
#52=PLANE('',#320);
#53=PLANE('',#329);
#54=PLANE('',#330);
#55=PLANE('',#331);
#56=PLANE('',#333);
#57=PLANE('',#339);
#58=PLANE('',#353);
#59=FACE_OUTER_BOUND('',#75,.T.);
#60=FACE_OUTER_BOUND('',#76,.T.);
#61=FACE_OUTER_BOUND('',#78,.T.);
#62=FACE_OUTER_BOUND('',#79,.T.);
#63=FACE_OUTER_BOUND('',#80,.T.);
#64=FACE_OUTER_BOUND('',#81,.T.);
#65=FACE_OUTER_BOUND('',#82,.T.);
#66=FACE_OUTER_BOUND('',#83,.T.);
#67=FACE_OUTER_BOUND('',#84,.T.);
#68=FACE_OUTER_BOUND('',#85,.T.);
#69=FACE_OUTER_BOUND('',#86,.T.);
#70=FACE_OUTER_BOUND('',#87,.T.);
#71=FACE_OUTER_BOUND('',#89,.T.);
#72=FACE_OUTER_BOUND('',#90,.T.);
#73=FACE_OUTER_BOUND('',#91,.T.);
#74=FACE_OUTER_BOUND('',#92,.T.);
#75=EDGE_LOOP('',(#191,#192,#193,#194));
#76=EDGE_LOOP('',(#195,#196,#197,#198));
#77=EDGE_LOOP('',(#199));
#78=EDGE_LOOP('',(#200,#201,#202,#203,#204,#205));
#79=EDGE_LOOP('',(#206,#207,#208,#209));
#80=EDGE_LOOP('',(#210,#211,#212,#213,#214));
#81=EDGE_LOOP('',(#215,#216,#217,#218,#219,#220));
#82=EDGE_LOOP('',(#221,#222));
#83=EDGE_LOOP('',(#223,#224,#225,#226,#227,#228));
#84=EDGE_LOOP('',(#229,#230));
#85=EDGE_LOOP('',(#231,#232,#233));
#86=EDGE_LOOP('',(#234,#235,#236,#237,#238,#239,#240,#241,#242,#243,#244,
#245,#246));
#87=EDGE_LOOP('',(#247,#248));
#88=EDGE_LOOP('',(#249,#250));
#89=EDGE_LOOP('',(#251,#252,#253,#254,#255,#256));
#90=EDGE_LOOP('',(#257,#258,#259,#260,#261,#262,#263));
#91=EDGE_LOOP('',(#264,#265,#266,#267,#268,#269,#270));
#92=EDGE_LOOP('',(#271,#272));
#93=CIRCLE('',#315,11.);
#94=CIRCLE('',#316,10.8);
#95=CIRCLE('',#318,10.8);
#96=CIRCLE('',#319,7.975);
#97=CIRCLE('',#322,11.);
#98=CIRCLE('',#324,7.475);
#99=CIRCLE('',#325,7.475);
#100=CIRCLE('',#327,7.475);
#101=CIRCLE('',#328,7.475);
#102=CIRCLE('',#332,11.);
#103=CIRCLE('',#334,11.);
#104=CIRCLE('',#335,11.);
#105=CIRCLE('',#337,11.);
#106=CIRCLE('',#338,11.);
#107=CIRCLE('',#340,11.4999999999997);
#108=CIRCLE('',#341,11.4999999999997);
#109=CIRCLE('',#343,16.9999999999992);
#110=CIRCLE('',#344,16.9999999999992);
#111=CIRCLE('',#346,22.499999999999);
#112=CIRCLE('',#347,22.499999999999);
#113=CIRCLE('',#348,22.499999999999);
#114=CIRCLE('',#350,22.5);
#115=CIRCLE('',#351,22.5);
#116=CIRCLE('',#352,1.);
#117=(
BOUNDED_CURVE()
B_SPLINE_CURVE(2,(#453,#454,#455),.UNSPECIFIED.,.F.,.F.)
B_SPLINE_CURVE_WITH_KNOTS((3,3),(-0.818242297802069,-0.76493564744901),
 .UNSPECIFIED.)
CURVE()
GEOMETRIC_REPRESENTATION_ITEM()
RATIONAL_B_SPLINE_CURVE((1.03899868164662,1.04051470289117,1.04166767398468))
REPRESENTATION_ITEM('')
);
#118=(
BOUNDED_CURVE()
B_SPLINE_CURVE(2,(#459,#460,#461),.UNSPECIFIED.,.F.,.F.)
B_SPLINE_CURVE_WITH_KNOTS((3,3),(-0.426354177232429,-0.373047526879371),
 .UNSPECIFIED.)
CURVE()
GEOMETRIC_REPRESENTATION_ITEM()
RATIONAL_B_SPLINE_CURVE((1.04166767398469,1.04051470289118,1.03899868164663))
REPRESENTATION_ITEM('')
);
#119=(
BOUNDED_CURVE()
B_SPLINE_CURVE(2,(#478,#479,#480),.UNSPECIFIED.,.F.,.F.)
B_SPLINE_CURVE_WITH_KNOTS((3,3),(0.373047526879371,0.426354177232429),
 .UNSPECIFIED.)
CURVE()
GEOMETRIC_REPRESENTATION_ITEM()
RATIONAL_B_SPLINE_CURVE((1.03899868164663,1.04051470289118,1.04166767398469))
REPRESENTATION_ITEM('')
);
#120=(
BOUNDED_CURVE()
B_SPLINE_CURVE(2,(#484,#485,#486),.UNSPECIFIED.,.F.,.F.)
B_SPLINE_CURVE_WITH_KNOTS((3,3),(-0.426354177232447,-0.373047526879387),
 .UNSPECIFIED.)
CURVE()
GEOMETRIC_REPRESENTATION_ITEM()
RATIONAL_B_SPLINE_CURVE((1.04166767398468,1.04051470289117,1.03899868164662))
REPRESENTATION_ITEM('')
);
#121=VERTEX_POINT('',#451);
#122=VERTEX_POINT('',#452);
#123=VERTEX_POINT('',#456);
#124=VERTEX_POINT('',#458);
#125=VERTEX_POINT('',#464);
#126=VERTEX_POINT('',#466);
#127=VERTEX_POINT('',#469);
#128=VERTEX_POINT('',#472);
#129=VERTEX_POINT('',#474);
#130=VERTEX_POINT('',#476);
#131=VERTEX_POINT('',#482);
#132=VERTEX_POINT('',#488);
#133=VERTEX_POINT('',#489);
#134=VERTEX_POINT('',#494);
#135=VERTEX_POINT('',#496);
#136=VERTEX_POINT('',#501);
#137=VERTEX_POINT('',#503);
#138=VERTEX_POINT('',#509);
#139=VERTEX_POINT('',#513);
#140=VERTEX_POINT('',#514);
#141=VERTEX_POINT('',#519);
#142=VERTEX_POINT('',#520);
#143=VERTEX_POINT('',#524);
#144=VERTEX_POINT('',#525);
#145=VERTEX_POINT('',#530);
#146=VERTEX_POINT('',#531);
#147=VERTEX_POINT('',#533);
#148=VERTEX_POINT('',#538);
#149=VERTEX_POINT('',#539);
#150=EDGE_CURVE('',#121,#122,#117,.T.);
#151=EDGE_CURVE('',#122,#123,#93,.T.);
#152=EDGE_CURVE('',#123,#124,#118,.T.);
#153=EDGE_CURVE('',#124,#121,#94,.T.);
#154=EDGE_CURVE('',#124,#125,#25,.T.);
#155=EDGE_CURVE('',#126,#125,#95,.T.);
#156=EDGE_CURVE('',#126,#121,#26,.T.);
#157=EDGE_CURVE('',#127,#127,#96,.T.);
#158=EDGE_CURVE('',#128,#123,#27,.T.);
#159=EDGE_CURVE('',#129,#128,#28,.T.);
#160=EDGE_CURVE('',#130,#129,#29,.T.);
#161=EDGE_CURVE('',#125,#130,#119,.T.);
#162=EDGE_CURVE('',#130,#131,#97,.T.);
#163=EDGE_CURVE('',#131,#126,#120,.T.);
#164=EDGE_CURVE('',#132,#133,#98,.T.);
#165=EDGE_CURVE('',#133,#127,#30,.T.);
#166=EDGE_CURVE('',#133,#132,#99,.T.);
#167=EDGE_CURVE('',#132,#134,#31,.T.);
#168=EDGE_CURVE('',#135,#134,#100,.T.);
#169=EDGE_CURVE('',#134,#135,#101,.T.);
#170=EDGE_CURVE('',#136,#131,#32,.T.);
#171=EDGE_CURVE('',#136,#137,#33,.T.);
#172=EDGE_CURVE('',#122,#137,#34,.T.);
#173=EDGE_CURVE('',#137,#136,#102,.T.);
#174=EDGE_CURVE('',#129,#138,#103,.T.);
#175=EDGE_CURVE('',#138,#128,#104,.T.);
#176=EDGE_CURVE('',#139,#140,#105,.T.);
#177=EDGE_CURVE('',#140,#139,#106,.T.);
#178=EDGE_CURVE('',#140,#138,#35,.T.);
#179=EDGE_CURVE('',#141,#142,#107,.T.);
#180=EDGE_CURVE('',#142,#141,#108,.T.);
#181=EDGE_CURVE('',#143,#144,#109,.T.);
#182=EDGE_CURVE('',#144,#143,#110,.T.);
#183=EDGE_CURVE('',#144,#142,#36,.T.);
#184=EDGE_CURVE('',#145,#146,#111,.T.);
#185=EDGE_CURVE('',#147,#145,#112,.T.);
#186=EDGE_CURVE('',#146,#147,#113,.T.);
#187=EDGE_CURVE('',#146,#144,#37,.T.);
#188=EDGE_CURVE('',#148,#149,#114,.T.);
#189=EDGE_CURVE('',#149,#148,#115,.T.);
#190=EDGE_CURVE('',#149,#147,#116,.T.);
#191=ORIENTED_EDGE('',*,*,#150,.T.);
#192=ORIENTED_EDGE('',*,*,#151,.T.);
#193=ORIENTED_EDGE('',*,*,#152,.T.);
#194=ORIENTED_EDGE('',*,*,#153,.T.);
#195=ORIENTED_EDGE('',*,*,#153,.F.);
#196=ORIENTED_EDGE('',*,*,#154,.T.);
#197=ORIENTED_EDGE('',*,*,#155,.F.);
#198=ORIENTED_EDGE('',*,*,#156,.T.);
#199=ORIENTED_EDGE('',*,*,#157,.F.);
#200=ORIENTED_EDGE('',*,*,#152,.F.);
#201=ORIENTED_EDGE('',*,*,#158,.F.);
#202=ORIENTED_EDGE('',*,*,#159,.F.);
#203=ORIENTED_EDGE('',*,*,#160,.F.);
#204=ORIENTED_EDGE('',*,*,#161,.F.);
#205=ORIENTED_EDGE('',*,*,#154,.F.);
#206=ORIENTED_EDGE('',*,*,#161,.T.);
#207=ORIENTED_EDGE('',*,*,#162,.T.);
#208=ORIENTED_EDGE('',*,*,#163,.T.);
#209=ORIENTED_EDGE('',*,*,#155,.T.);
#210=ORIENTED_EDGE('',*,*,#164,.T.);
#211=ORIENTED_EDGE('',*,*,#165,.T.);
#212=ORIENTED_EDGE('',*,*,#157,.T.);
#213=ORIENTED_EDGE('',*,*,#165,.F.);
#214=ORIENTED_EDGE('',*,*,#166,.T.);
#215=ORIENTED_EDGE('',*,*,#164,.F.);
#216=ORIENTED_EDGE('',*,*,#167,.T.);
#217=ORIENTED_EDGE('',*,*,#168,.F.);
#218=ORIENTED_EDGE('',*,*,#169,.F.);
#219=ORIENTED_EDGE('',*,*,#167,.F.);
#220=ORIENTED_EDGE('',*,*,#166,.F.);
#221=ORIENTED_EDGE('',*,*,#168,.T.);
#222=ORIENTED_EDGE('',*,*,#169,.T.);
#223=ORIENTED_EDGE('',*,*,#150,.F.);
#224=ORIENTED_EDGE('',*,*,#156,.F.);
#225=ORIENTED_EDGE('',*,*,#163,.F.);
#226=ORIENTED_EDGE('',*,*,#170,.F.);
#227=ORIENTED_EDGE('',*,*,#171,.T.);
#228=ORIENTED_EDGE('',*,*,#172,.F.);
#229=ORIENTED_EDGE('',*,*,#173,.F.);
#230=ORIENTED_EDGE('',*,*,#171,.F.);
#231=ORIENTED_EDGE('',*,*,#174,.F.);
#232=ORIENTED_EDGE('',*,*,#159,.T.);
#233=ORIENTED_EDGE('',*,*,#175,.F.);
#234=ORIENTED_EDGE('',*,*,#176,.F.);
#235=ORIENTED_EDGE('',*,*,#177,.F.);
#236=ORIENTED_EDGE('',*,*,#178,.T.);
#237=ORIENTED_EDGE('',*,*,#175,.T.);
#238=ORIENTED_EDGE('',*,*,#158,.T.);
#239=ORIENTED_EDGE('',*,*,#151,.F.);
#240=ORIENTED_EDGE('',*,*,#172,.T.);
#241=ORIENTED_EDGE('',*,*,#173,.T.);
#242=ORIENTED_EDGE('',*,*,#170,.T.);
#243=ORIENTED_EDGE('',*,*,#162,.F.);
#244=ORIENTED_EDGE('',*,*,#160,.T.);
#245=ORIENTED_EDGE('',*,*,#174,.T.);
#246=ORIENTED_EDGE('',*,*,#178,.F.);
#247=ORIENTED_EDGE('',*,*,#179,.F.);
#248=ORIENTED_EDGE('',*,*,#180,.F.);
#249=ORIENTED_EDGE('',*,*,#176,.T.);
#250=ORIENTED_EDGE('',*,*,#177,.T.);
#251=ORIENTED_EDGE('',*,*,#181,.F.);
#252=ORIENTED_EDGE('',*,*,#182,.F.);
#253=ORIENTED_EDGE('',*,*,#183,.T.);
#254=ORIENTED_EDGE('',*,*,#180,.T.);
#255=ORIENTED_EDGE('',*,*,#179,.T.);
#256=ORIENTED_EDGE('',*,*,#183,.F.);
#257=ORIENTED_EDGE('',*,*,#184,.F.);
#258=ORIENTED_EDGE('',*,*,#185,.F.);
#259=ORIENTED_EDGE('',*,*,#186,.F.);
#260=ORIENTED_EDGE('',*,*,#187,.T.);
#261=ORIENTED_EDGE('',*,*,#182,.T.);
#262=ORIENTED_EDGE('',*,*,#181,.T.);
#263=ORIENTED_EDGE('',*,*,#187,.F.);
#264=ORIENTED_EDGE('',*,*,#188,.F.);
#265=ORIENTED_EDGE('',*,*,#189,.F.);
#266=ORIENTED_EDGE('',*,*,#190,.T.);
#267=ORIENTED_EDGE('',*,*,#185,.T.);
#268=ORIENTED_EDGE('',*,*,#184,.T.);
#269=ORIENTED_EDGE('',*,*,#186,.T.);
#270=ORIENTED_EDGE('',*,*,#190,.F.);
#271=ORIENTED_EDGE('',*,*,#188,.T.);
#272=ORIENTED_EDGE('',*,*,#189,.T.);
#273=CONICAL_SURFACE('',#314,10.9,0.785398163397448);
#274=CONICAL_SURFACE('',#321,10.9,0.785398163397448);
#275=CONICAL_SURFACE('',#323,7.725,0.785398163397464);
#276=CONICAL_SURFACE('',#342,14.2499999999995,0.225276779214029);
#277=CONICAL_SURFACE('',#345,19.7499999999991,0.602287346134928);
#278=ADVANCED_FACE('',(#59),#273,.T.);
#279=ADVANCED_FACE('',(#60,#23),#51,.T.);
#280=ADVANCED_FACE('',(#61),#52,.F.);
#281=ADVANCED_FACE('',(#62),#274,.T.);
#282=ADVANCED_FACE('',(#63),#275,.F.);
#283=ADVANCED_FACE('',(#64),#21,.F.);
#284=ADVANCED_FACE('',(#65),#53,.F.);
#285=ADVANCED_FACE('',(#66),#54,.F.);
#286=ADVANCED_FACE('',(#67),#55,.F.);
#287=ADVANCED_FACE('',(#68),#56,.F.);
#288=ADVANCED_FACE('',(#69),#22,.T.);
#289=ADVANCED_FACE('',(#70,#24),#57,.T.);
#290=ADVANCED_FACE('',(#71),#276,.T.);
#291=ADVANCED_FACE('',(#72),#277,.T.);
#292=ADVANCED_FACE('',(#73),#14,.T.);
#293=ADVANCED_FACE('',(#74),#58,.T.);
#294=CLOSED_SHELL('',(#278,#279,#280,#281,#282,#283,#284,#285,#286,#287,
#288,#289,#290,#291,#292,#293));
#295=DERIVED_UNIT_ELEMENT(#297,1.);
#296=DERIVED_UNIT_ELEMENT(#549,3.);
#297=(
MASS_UNIT()
NAMED_UNIT(*)
SI_UNIT($,.GRAM.)
);
#298=DERIVED_UNIT((#295,#296));
#299=MEASURE_REPRESENTATION_ITEM('density measure',
POSITIVE_RATIO_MEASURE(1.),#298);
#300=PROPERTY_DEFINITION_REPRESENTATION(#305,#302);
#301=PROPERTY_DEFINITION_REPRESENTATION(#306,#303);
#302=REPRESENTATION('material name',(#304),#546);
#303=REPRESENTATION('density',(#299),#546);
#304=DESCRIPTIVE_REPRESENTATION_ITEM('Gen\X\E9rico','Gen\X\E9rico');
#305=PROPERTY_DEFINITION('material property','material name',#556);
#306=PROPERTY_DEFINITION('material property','density of part',#556);
#307=DATE_TIME_ROLE('creation_date');
#308=CC_DESIGN_DATE_AND_TIME_ASSIGNMENT(#309,#307,(#556));
#309=DATE_AND_TIME(#310,#311);
#310=CALENDAR_DATE(2020,6,10);
#311=LOCAL_TIME(15,44,12.,#312);
#312=COORDINATED_UNIVERSAL_TIME_OFFSET(0,0,.BEHIND.);
#313=AXIS2_PLACEMENT_3D('placement',#449,#354,#355);
#314=AXIS2_PLACEMENT_3D('',#450,#356,#357);
#315=AXIS2_PLACEMENT_3D('',#457,#358,#359);
#316=AXIS2_PLACEMENT_3D('',#462,#360,#361);
#317=AXIS2_PLACEMENT_3D('',#463,#362,#363);
#318=AXIS2_PLACEMENT_3D('',#467,#365,#366);
#319=AXIS2_PLACEMENT_3D('',#470,#368,#369);
#320=AXIS2_PLACEMENT_3D('',#471,#370,#371);
#321=AXIS2_PLACEMENT_3D('',#481,#375,#376);
#322=AXIS2_PLACEMENT_3D('',#483,#377,#378);
#323=AXIS2_PLACEMENT_3D('',#487,#379,#380);
#324=AXIS2_PLACEMENT_3D('',#490,#381,#382);
#325=AXIS2_PLACEMENT_3D('',#492,#384,#385);
#326=AXIS2_PLACEMENT_3D('',#493,#386,#387);
#327=AXIS2_PLACEMENT_3D('',#497,#389,#390);
#328=AXIS2_PLACEMENT_3D('',#498,#391,#392);
#329=AXIS2_PLACEMENT_3D('',#499,#393,#394);
#330=AXIS2_PLACEMENT_3D('',#500,#395,#396);
#331=AXIS2_PLACEMENT_3D('',#506,#400,#401);
#332=AXIS2_PLACEMENT_3D('',#507,#402,#403);
#333=AXIS2_PLACEMENT_3D('',#508,#404,#405);
#334=AXIS2_PLACEMENT_3D('',#510,#406,#407);
#335=AXIS2_PLACEMENT_3D('',#511,#408,#409);
#336=AXIS2_PLACEMENT_3D('',#512,#410,#411);
#337=AXIS2_PLACEMENT_3D('',#515,#412,#413);
#338=AXIS2_PLACEMENT_3D('',#516,#414,#415);
#339=AXIS2_PLACEMENT_3D('',#518,#417,#418);
#340=AXIS2_PLACEMENT_3D('',#521,#419,#420);
#341=AXIS2_PLACEMENT_3D('',#522,#421,#422);
#342=AXIS2_PLACEMENT_3D('',#523,#423,#424);
#343=AXIS2_PLACEMENT_3D('',#526,#425,#426);
#344=AXIS2_PLACEMENT_3D('',#527,#427,#428);
#345=AXIS2_PLACEMENT_3D('',#529,#430,#431);
#346=AXIS2_PLACEMENT_3D('',#532,#432,#433);
#347=AXIS2_PLACEMENT_3D('',#534,#434,#435);
#348=AXIS2_PLACEMENT_3D('',#535,#436,#437);
#349=AXIS2_PLACEMENT_3D('',#537,#439,#440);
#350=AXIS2_PLACEMENT_3D('',#540,#441,#442);
#351=AXIS2_PLACEMENT_3D('',#541,#443,#444);
#352=AXIS2_PLACEMENT_3D('',#542,#445,#446);
#353=AXIS2_PLACEMENT_3D('',#543,#447,#448);
#354=DIRECTION('axis',(0.,0.,1.));
#355=DIRECTION('refdir',(1.,0.,0.));
#356=DIRECTION('center_axis',(-6.459479E-16,-1.,0.));
#357=DIRECTION('ref_axis',(-1.,6.459479E-16,0.));
#358=DIRECTION('center_axis',(0.,1.,0.));
#359=DIRECTION('ref_axis',(-1.,0.,0.));
#360=DIRECTION('center_axis',(0.,-1.,0.));
#361=DIRECTION('ref_axis',(-1.,0.,0.));
#362=DIRECTION('center_axis',(0.,1.,0.));
#363=DIRECTION('ref_axis',(0.,0.,1.));
#364=DIRECTION('',(0.,0.,-1.));
#365=DIRECTION('center_axis',(0.,-1.,0.));
#366=DIRECTION('ref_axis',(-1.,0.,0.));
#367=DIRECTION('',(0.,0.,1.));
#368=DIRECTION('center_axis',(0.,1.,0.));
#369=DIRECTION('ref_axis',(-1.,0.,0.));
#370=DIRECTION('center_axis',(-1.,0.,0.));
#371=DIRECTION('ref_axis',(0.,0.,1.));
#372=DIRECTION('',(0.,1.,0.));
#373=DIRECTION('',(0.,0.,1.));
#374=DIRECTION('',(0.,-1.,0.));
#375=DIRECTION('center_axis',(-6.459479E-16,-1.,0.));
#376=DIRECTION('ref_axis',(-1.,6.459479E-16,0.));
#377=DIRECTION('center_axis',(0.,1.,0.));
#378=DIRECTION('ref_axis',(-1.,0.,0.));
#379=DIRECTION('center_axis',(6.459479E-16,1.,0.));
#380=DIRECTION('ref_axis',(-1.,6.459479E-16,0.));
#381=DIRECTION('center_axis',(0.,-1.,0.));
#382=DIRECTION('ref_axis',(-1.,0.,0.));
#383=DIRECTION('',(0.707106781186559,0.707106781186536,-8.65956056235507E-17));
#384=DIRECTION('center_axis',(0.,-1.,0.));
#385=DIRECTION('ref_axis',(-1.,0.,0.));
#386=DIRECTION('center_axis',(0.,-1.,2.220446E-16));
#387=DIRECTION('ref_axis',(1.,0.,0.));
#388=DIRECTION('',(0.,-1.,2.220446E-16));
#389=DIRECTION('center_axis',(0.,1.,0.));
#390=DIRECTION('ref_axis',(1.,0.,0.));
#391=DIRECTION('center_axis',(0.,1.,0.));
#392=DIRECTION('ref_axis',(1.,0.,0.));
#393=DIRECTION('center_axis',(0.,-1.,0.));
#394=DIRECTION('ref_axis',(0.,0.,-1.));
#395=DIRECTION('center_axis',(1.,0.,0.));
#396=DIRECTION('ref_axis',(0.,0.,-1.));
#397=DIRECTION('',(0.,1.,0.));
#398=DIRECTION('',(0.,0.,1.));
#399=DIRECTION('',(0.,-1.,0.));
#400=DIRECTION('center_axis',(0.,-1.,0.));
#401=DIRECTION('ref_axis',(0.,0.,-1.));
#402=DIRECTION('center_axis',(0.,-1.,0.));
#403=DIRECTION('ref_axis',(-1.,0.,0.));
#404=DIRECTION('center_axis',(0.,-1.,0.));
#405=DIRECTION('ref_axis',(0.,0.,-1.));
#406=DIRECTION('center_axis',(0.,-1.,0.));
#407=DIRECTION('ref_axis',(-1.,0.,0.));
#408=DIRECTION('center_axis',(0.,-1.,0.));
#409=DIRECTION('ref_axis',(-1.,0.,0.));
#410=DIRECTION('center_axis',(-6.459479E-16,-1.,0.));
#411=DIRECTION('ref_axis',(-1.,6.459479E-16,0.));
#412=DIRECTION('center_axis',(0.,-1.,0.));
#413=DIRECTION('ref_axis',(-1.,0.,0.));
#414=DIRECTION('center_axis',(0.,-1.,0.));
#415=DIRECTION('ref_axis',(-1.,0.,0.));
#416=DIRECTION('',(6.459479E-16,1.,0.));
#417=DIRECTION('center_axis',(0.,1.,0.));
#418=DIRECTION('ref_axis',(0.,0.,1.));
#419=DIRECTION('center_axis',(0.,-1.,0.));
#420=DIRECTION('ref_axis',(-1.,0.,0.));
#421=DIRECTION('center_axis',(0.,-1.,0.));
#422=DIRECTION('ref_axis',(-1.,0.,0.));
#423=DIRECTION('center_axis',(-6.459479E-16,-1.,0.));
#424=DIRECTION('ref_axis',(-1.,6.459479E-16,0.));
#425=DIRECTION('center_axis',(0.,-1.,0.));
#426=DIRECTION('ref_axis',(-1.,0.,0.));
#427=DIRECTION('center_axis',(0.,-1.,0.));
#428=DIRECTION('ref_axis',(-1.,0.,0.));
#429=DIRECTION('',(-0.22337615632937,0.97473231852828,-2.73556894854602E-17));
#430=DIRECTION('center_axis',(-6.459479E-16,-1.,0.));
#431=DIRECTION('ref_axis',(-1.,6.459479E-16,0.));
#432=DIRECTION('center_axis',(0.,-1.,0.));
#433=DIRECTION('ref_axis',(-1.,0.,0.));
#434=DIRECTION('center_axis',(0.,-1.,0.));
#435=DIRECTION('ref_axis',(-1.,0.,0.));
#436=DIRECTION('center_axis',(0.,-1.,0.));
#437=DIRECTION('ref_axis',(-1.,0.,0.));
#438=DIRECTION('',(-0.566528822887035,0.824041924199389,-6.93797709573326E-17));
#439=DIRECTION('center_axis',(-6.459479E-16,-1.,0.));
#440=DIRECTION('ref_axis',(0.,0.,-1.));
#441=DIRECTION('center_axis',(0.,-1.,0.));
#442=DIRECTION('ref_axis',(-1.,0.,0.));
#443=DIRECTION('center_axis',(0.,-1.,0.));
#444=DIRECTION('ref_axis',(-1.,0.,0.));
#445=DIRECTION('center_axis',(-1.,6.459479E-16,-1.22464679914735E-16));
#446=DIRECTION('ref_axis',(-1.22464679914735E-16,0.,1.));
#447=DIRECTION('center_axis',(0.,-1.,0.));
#448=DIRECTION('ref_axis',(0.,0.,-1.));
#449=CARTESIAN_POINT('',(0.,0.,0.));
#450=CARTESIAN_POINT('Origin',(2.706522E-14,39.9,0.));
#451=CARTESIAN_POINT('',(-9.5,40.,5.13711981561654));
#452=CARTESIAN_POINT('',(-9.5,39.8,5.54526825320472));
#453=CARTESIAN_POINT('Ctrl Pts',(-9.5,40.,5.13711981561653));
#454=CARTESIAN_POINT('Ctrl Pts',(-9.5,39.9038207602547,5.3393217938712));
#455=CARTESIAN_POINT('Ctrl Pts',(-9.5,39.8,5.54526825320466));
#456=CARTESIAN_POINT('',(9.50000000000001,39.8,5.54526825320479));
#457=CARTESIAN_POINT('Origin',(2.700062E-14,39.8,0.));
#458=CARTESIAN_POINT('',(9.5,40.,5.13711981561664));
#459=CARTESIAN_POINT('Ctrl Pts',(9.5,39.8,5.54526825320473));
#460=CARTESIAN_POINT('Ctrl Pts',(9.5,39.9038207602547,5.33932179387129));
#461=CARTESIAN_POINT('Ctrl Pts',(9.5,40.,5.13711981561663));
#462=CARTESIAN_POINT('Origin',(2.712981E-14,40.,0.));
#463=CARTESIAN_POINT('Origin',(-10.25,40.,0.));
#464=CARTESIAN_POINT('',(9.5,40.,-5.13711981561664));
#465=CARTESIAN_POINT('',(9.5,40.,5.13711981561664));
#466=CARTESIAN_POINT('',(-9.5,40.,-5.13711981561654));
#467=CARTESIAN_POINT('Origin',(2.712981E-14,40.,0.));
#468=CARTESIAN_POINT('',(-9.5,40.,-5.13711981561654));
#469=CARTESIAN_POINT('',(7.97500000000003,40.,-8.656335E-16));
#470=CARTESIAN_POINT('Origin',(2.745279E-14,40.,1.110223E-16));
#471=CARTESIAN_POINT('Origin',(9.5,36.,-25.));
#472=CARTESIAN_POINT('',(9.5,36.,5.54526825320479));
#473=CARTESIAN_POINT('',(9.5,36.,5.54526825320479));
#474=CARTESIAN_POINT('',(9.5,36.,-5.54526825320479));
#475=CARTESIAN_POINT('',(9.5,36.,-5.5452682532048));
#476=CARTESIAN_POINT('',(9.50000000000001,39.8,-5.54526825320479));
#477=CARTESIAN_POINT('',(9.50000000000001,39.8,-5.54526825320479));
#478=CARTESIAN_POINT('Ctrl Pts',(9.5,40.,-5.13711981561663));
#479=CARTESIAN_POINT('Ctrl Pts',(9.5,39.9038207602547,-5.33932179387129));
#480=CARTESIAN_POINT('Ctrl Pts',(9.5,39.8,-5.54526825320473));
#481=CARTESIAN_POINT('Origin',(2.706522E-14,39.9,0.));
#482=CARTESIAN_POINT('',(-9.5,39.8,-5.54526825320472));
#483=CARTESIAN_POINT('Origin',(2.700062E-14,39.8,0.));
#484=CARTESIAN_POINT('Ctrl Pts',(-9.5,39.8,-5.54526825320466));
#485=CARTESIAN_POINT('Ctrl Pts',(-9.5,39.9038207602547,-5.3393217938712));
#486=CARTESIAN_POINT('Ctrl Pts',(-9.5,40.,-5.13711981561653));
#487=CARTESIAN_POINT('Origin',(2.72913E-14,39.75,1.110223E-16));
#488=CARTESIAN_POINT('',(-7.47499999999997,39.5,-8.0440118236265E-16));
#489=CARTESIAN_POINT('',(7.47500000000002,39.5,-8.04401182362646E-16));
#490=CARTESIAN_POINT('Origin',(2.712981E-14,39.5,1.110223E-16));
#491=CARTESIAN_POINT('',(7.72500000000003,39.75,-8.3501735234133E-16));
#492=CARTESIAN_POINT('Origin',(2.712981E-14,39.5,1.110223E-16));
#493=CARTESIAN_POINT('Origin',(2.712981E-14,40.,0.));
#494=CARTESIAN_POINT('',(-7.47499999999997,31.,1.08297791763735E-15));
#495=CARTESIAN_POINT('',(-7.47499999999997,40.,-9.15423482362646E-16));
#496=CARTESIAN_POINT('',(7.47500000000003,31.,1.998401E-15));
#497=CARTESIAN_POINT('Origin',(2.712981E-14,31.,1.998401E-15));
#498=CARTESIAN_POINT('Origin',(2.712981E-14,31.,1.998401E-15));
#499=CARTESIAN_POINT('Origin',(2.712981E-14,31.,1.998401E-15));
#500=CARTESIAN_POINT('Origin',(-9.5,40.,-25.));
#501=CARTESIAN_POINT('',(-9.5,36.,-5.54526825320472));
#502=CARTESIAN_POINT('',(-9.5,36.,-5.54526825320472));
#503=CARTESIAN_POINT('',(-9.5,36.,5.54526825320472));
#504=CARTESIAN_POINT('',(-9.5,36.,-5.54526825320472));
#505=CARTESIAN_POINT('',(-9.5,39.8,5.54526825320472));
#506=CARTESIAN_POINT('Origin',(-9.5,36.,-25.));
#507=CARTESIAN_POINT('Origin',(2.454602E-14,36.,0.));
#508=CARTESIAN_POINT('Origin',(11.,36.,-25.));
#509=CARTESIAN_POINT('',(11.,36.,1.34711147906209E-15));
#510=CARTESIAN_POINT('Origin',(2.454602E-14,36.,0.));
#511=CARTESIAN_POINT('Origin',(2.454602E-14,36.,0.));
#512=CARTESIAN_POINT('Origin',(2.390007E-14,35.,0.));
#513=CARTESIAN_POINT('',(-11.,34.,0.));
#514=CARTESIAN_POINT('',(11.,34.,1.34711147906209E-15));
#515=CARTESIAN_POINT('Origin',(2.325413E-14,34.,0.));
#516=CARTESIAN_POINT('Origin',(2.325413E-14,34.,0.));
#517=CARTESIAN_POINT('',(11.,35.,1.34711147906209E-15));
#518=CARTESIAN_POINT('Origin',(-11.2499999999999,34.,0.));
#519=CARTESIAN_POINT('',(-11.4999999999997,34.,0.));
#520=CARTESIAN_POINT('',(11.4999999999998,34.,1.40834381901943E-15));
#521=CARTESIAN_POINT('Origin',(2.325413E-14,34.,0.));
#522=CARTESIAN_POINT('Origin',(2.325413E-14,34.,0.));
#523=CARTESIAN_POINT('Origin',(1.550275E-14,21.9999999999998,0.));
#524=CARTESIAN_POINT('',(-16.9999999999992,9.99999999999955,0.));
#525=CARTESIAN_POINT('',(16.9999999999992,9.99999999999952,2.08189955855041E-15));
#526=CARTESIAN_POINT('Origin',(7.751375E-15,9.99999999999954,0.));
#527=CARTESIAN_POINT('Origin',(7.751375E-15,9.99999999999954,0.));
#528=CARTESIAN_POINT('',(14.2499999999995,21.9999999999998,1.74512168878492E-15));
#529=CARTESIAN_POINT('Origin',(5.167584E-15,5.99999999999939,0.));
#530=CARTESIAN_POINT('',(-22.499999999999,1.99999999999926,0.));
#531=CARTESIAN_POINT('',(22.499999999999,1.99999999999922,2.75545529808142E-15));
#532=CARTESIAN_POINT('Origin',(2.583792E-15,1.99999999999925,0.));
#533=CARTESIAN_POINT('',(-2.10950739808193E-15,1.99999999999925,22.499999999999));
#534=CARTESIAN_POINT('Origin',(2.583792E-15,1.99999999999925,0.));
#535=CARTESIAN_POINT('Origin',(2.583792E-15,1.99999999999925,0.));
#536=CARTESIAN_POINT('',(19.7499999999991,5.99999999999938,2.41867742831591E-15));
#537=CARTESIAN_POINT('Origin',(0.,1.00000000000004,0.));
#538=CARTESIAN_POINT('',(-22.5,5.684342E-14,0.));
#539=CARTESIAN_POINT('',(-3.40140319808154E-15,4.23272528138341E-14,22.5));
#540=CARTESIAN_POINT('Origin',(1.291896E-15,4.230959E-14,0.));
#541=CARTESIAN_POINT('Origin',(1.291896E-15,4.230959E-14,0.));
#542=CARTESIAN_POINT('Origin',(-2.75545529808154E-15,1.00000000000004,22.5));
#543=CARTESIAN_POINT('Origin',(-11.25,2.842171E-14,0.));
#544=UNCERTAINTY_MEASURE_WITH_UNIT(LENGTH_MEASURE(0.01),#548,
'DISTANCE_ACCURACY_VALUE',
'Maximum model space distance between geometric entities at asserted c
onnectivities');
#545=UNCERTAINTY_MEASURE_WITH_UNIT(LENGTH_MEASURE(0.01),#548,
'DISTANCE_ACCURACY_VALUE',
'Maximum model space distance between geometric entities at asserted c
onnectivities');
#546=(
GEOMETRIC_REPRESENTATION_CONTEXT(3)
GLOBAL_UNCERTAINTY_ASSIGNED_CONTEXT((#544))
GLOBAL_UNIT_ASSIGNED_CONTEXT((#548,#550,#551))
REPRESENTATION_CONTEXT('','3D')
);
#547=(
GEOMETRIC_REPRESENTATION_CONTEXT(3)
GLOBAL_UNCERTAINTY_ASSIGNED_CONTEXT((#545))
GLOBAL_UNIT_ASSIGNED_CONTEXT((#548,#550,#551))
REPRESENTATION_CONTEXT('','3D')
);
#548=(
LENGTH_UNIT()
NAMED_UNIT(*)
SI_UNIT(.MILLI.,.METRE.)
);
#549=(
LENGTH_UNIT()
NAMED_UNIT(*)
SI_UNIT(.CENTI.,.METRE.)
);
#550=(
NAMED_UNIT(*)
PLANE_ANGLE_UNIT()
SI_UNIT($,.RADIAN.)
);
#551=(
NAMED_UNIT(*)
SI_UNIT($,.STERADIAN.)
SOLID_ANGLE_UNIT()
);
#552=SHAPE_DEFINITION_REPRESENTATION(#553,#554);
#553=PRODUCT_DEFINITION_SHAPE('',$,#556);
#554=SHAPE_REPRESENTATION('',(#313),#546);
#555=DESIGN_CONTEXT('part definition',#560,'design');
#556=PRODUCT_DEFINITION('vsa45r3-8nit','vsa45r3-8nit',#557,#555);
#557=PRODUCT_DEFINITION_FORMATION('',$,#562);
#558=PRODUCT_RELATED_PRODUCT_CATEGORY('vsa45r3-8nit','vsa45r3-8nit',(#562));
#559=APPLICATION_PROTOCOL_DEFINITION('international standard',
'ap203_configuration_controlled_3d_design_of_mechanical_parts_and_asse
mblies_mim_lf',2004,#560);
#560=APPLICATION_CONTEXT(
'Configuration Controlled 3D Design of Mechanical Parts and Assemblies');
#561=MECHANICAL_CONTEXT('part definition',#560,'mechanical');
#562=PRODUCT('vsa45r3-8nit','vsa45r3-8nit',$,(#561));
#563=PRESENTATION_STYLE_ASSIGNMENT((#567));
#564=PRESENTATION_STYLE_ASSIGNMENT((#568));
#565=PRESENTATION_STYLE_ASSIGNMENT((#569));
#566=PRESENTATION_STYLE_ASSIGNMENT((#570));
#567=SURFACE_STYLE_USAGE(.BOTH.,#579);
#568=SURFACE_STYLE_USAGE(.BOTH.,#580);
#569=SURFACE_STYLE_USAGE(.BOTH.,#581);
#570=SURFACE_STYLE_USAGE(.BOTH.,#582);
#571=SURFACE_STYLE_RENDERING_WITH_PROPERTIES($,#595,(#575));
#572=SURFACE_STYLE_RENDERING_WITH_PROPERTIES($,#596,(#576));
#573=SURFACE_STYLE_RENDERING_WITH_PROPERTIES($,#597,(#577));
#574=SURFACE_STYLE_RENDERING_WITH_PROPERTIES($,#598,(#578));
#575=SURFACE_STYLE_TRANSPARENT(0.);
#576=SURFACE_STYLE_TRANSPARENT(0.);
#577=SURFACE_STYLE_TRANSPARENT(0.);
#578=SURFACE_STYLE_TRANSPARENT(0.);
#579=SURFACE_SIDE_STYLE('',(#583,#571));
#580=SURFACE_SIDE_STYLE('',(#584,#572));
#581=SURFACE_SIDE_STYLE('',(#585,#573));
#582=SURFACE_SIDE_STYLE('',(#586,#574));
#583=SURFACE_STYLE_FILL_AREA(#587);
#584=SURFACE_STYLE_FILL_AREA(#588);
#585=SURFACE_STYLE_FILL_AREA(#589);
#586=SURFACE_STYLE_FILL_AREA(#590);
#587=FILL_AREA_STYLE('',(#591));
#588=FILL_AREA_STYLE('',(#592));
#589=FILL_AREA_STYLE('',(#593));
#590=FILL_AREA_STYLE('',(#594));
#591=FILL_AREA_STYLE_COLOUR('',#595);
#592=FILL_AREA_STYLE_COLOUR('',#596);
#593=FILL_AREA_STYLE_COLOUR('',#597);
#594=FILL_AREA_STYLE_COLOUR('',#598);
#595=COLOUR_RGB('',0.749019607843137,0.749019607843137,0.749019607843137);
#596=COLOUR_RGB('',0.745098039215686,0.737254901960784,0.729411764705882);
#597=COLOUR_RGB('',0.32156862745098,0.32156862745098,0.32156862745098);
#598=COLOUR_RGB('',0.32156862745098,0.32156862745098,0.32156862745098);
ENDSEC;
END-ISO-10303-21;
