ISO-10303-21;
HEADER;
/* Generated by software containing ST-Developer
 * from STEP Tools, Inc. (www.steptools.com) 
 */

FILE_DESCRIPTION(
/* description */ (''),
/* implementation_level */ '2;1');

FILE_NAME(
/* name */ 
'C:\\Users\\enginyeria\\Desktop\\A corregir\\futuros STP\\vsa62ecun.st
p',
/* time_stamp */ '2020-10-28T11:11:49+01:00',
/* author */ ('enginyeria'),
/* organization */ (''),
/* preprocessor_version */ 'ST-DEVELOPER v17.2',
/* originating_system */ 'Autodesk Inventor 2019',
/* authorisation */ '');

FILE_SCHEMA (('CONFIG_CONTROL_DESIGN'));
ENDSEC;

DATA;
#10=MECHANICAL_DESIGN_GEOMETRIC_PRESENTATION_REPRESENTATION('',(#15,#16,
#17,#18,#19,#20),#323);
#11=SHAPE_REPRESENTATION_RELATIONSHIP('SRR','None',#330,#12);
#12=ADVANCED_BREP_SHAPE_REPRESENTATION('',(#13),#322);
#13=MANIFOLD_SOLID_BREP('S\X\F3lido1',#167);
#14=TOROIDAL_SURFACE('',#201,31.,1.);
#15=STYLED_ITEM('',(#341),#162);
#16=STYLED_ITEM('',(#341),#163);
#17=STYLED_ITEM('',(#341),#164);
#18=STYLED_ITEM('',(#341),#165);
#19=STYLED_ITEM('',(#341),#166);
#20=STYLED_ITEM('',(#340),#13);
#21=CYLINDRICAL_SURFACE('',#194,9.5);
#22=FACE_BOUND('',#37,.T.);
#23=PLANE('',#191);
#24=PLANE('',#197);
#25=PLANE('',#198);
#26=FACE_OUTER_BOUND('',#35,.T.);
#27=FACE_OUTER_BOUND('',#36,.T.);
#28=FACE_OUTER_BOUND('',#38,.T.);
#29=FACE_OUTER_BOUND('',#39,.T.);
#30=FACE_OUTER_BOUND('',#40,.T.);
#31=FACE_OUTER_BOUND('',#41,.T.);
#32=FACE_OUTER_BOUND('',#42,.T.);
#33=FACE_OUTER_BOUND('',#43,.T.);
#34=FACE_OUTER_BOUND('',#44,.T.);
#35=EDGE_LOOP('',(#110,#111,#112,#113,#114));
#36=EDGE_LOOP('',(#115,#116));
#37=EDGE_LOOP('',(#117));
#38=EDGE_LOOP('',(#118,#119,#120,#121,#122,#123));
#39=EDGE_LOOP('',(#124,#125));
#40=EDGE_LOOP('',(#126,#127));
#41=EDGE_LOOP('',(#128,#129,#130,#131,#132,#133,#134));
#42=EDGE_LOOP('',(#135,#136,#137,#138,#139,#140,#141));
#43=EDGE_LOOP('',(#142,#143,#144,#145,#146,#147));
#44=EDGE_LOOP('',(#148,#149,#150,#151,#152,#153));
#45=LINE('',#279,#50);
#46=LINE('',#291,#51);
#47=LINE('',#308,#52);
#48=LINE('',#314,#53);
#49=LINE('',#319,#54);
#50=VECTOR('',#221,9.75);
#51=VECTOR('',#236,9.5);
#52=VECTOR('',#257,26.5000000000001);
#53=VECTOR('',#264,19.2500000000001);
#54=VECTOR('',#271,15.2500000000001);
#55=CIRCLE('',#188,9.5);
#56=CIRCLE('',#189,9.5);
#57=CIRCLE('',#190,10.);
#58=CIRCLE('',#192,14.);
#59=CIRCLE('',#193,14.);
#60=CIRCLE('',#195,9.5);
#61=CIRCLE('',#196,9.5);
#62=CIRCLE('',#199,31.);
#63=CIRCLE('',#200,31.);
#64=CIRCLE('',#202,31.);
#65=CIRCLE('',#203,31.);
#66=CIRCLE('',#204,1.);
#67=CIRCLE('',#205,31.);
#68=CIRCLE('',#207,22.0000000000001);
#69=CIRCLE('',#208,22.0000000000001);
#70=CIRCLE('',#210,16.5000000000001);
#71=CIRCLE('',#211,16.5000000000001);
#72=VERTEX_POINT('',#274);
#73=VERTEX_POINT('',#275);
#74=VERTEX_POINT('',#278);
#75=VERTEX_POINT('',#282);
#76=VERTEX_POINT('',#283);
#77=VERTEX_POINT('',#287);
#78=VERTEX_POINT('',#288);
#79=VERTEX_POINT('',#294);
#80=VERTEX_POINT('',#295);
#81=VERTEX_POINT('',#299);
#82=VERTEX_POINT('',#300);
#83=VERTEX_POINT('',#302);
#84=VERTEX_POINT('',#307);
#85=VERTEX_POINT('',#309);
#86=VERTEX_POINT('',#313);
#87=VERTEX_POINT('',#315);
#88=EDGE_CURVE('',#72,#73,#55,.T.);
#89=EDGE_CURVE('',#73,#72,#56,.T.);
#90=EDGE_CURVE('',#72,#74,#45,.T.);
#91=EDGE_CURVE('',#74,#74,#57,.T.);
#92=EDGE_CURVE('',#75,#76,#58,.T.);
#93=EDGE_CURVE('',#76,#75,#59,.T.);
#94=EDGE_CURVE('',#77,#78,#60,.T.);
#95=EDGE_CURVE('',#78,#77,#61,.T.);
#96=EDGE_CURVE('',#78,#73,#46,.T.);
#97=EDGE_CURVE('',#79,#80,#62,.T.);
#98=EDGE_CURVE('',#80,#79,#63,.T.);
#99=EDGE_CURVE('',#81,#82,#64,.T.);
#100=EDGE_CURVE('',#83,#81,#65,.T.);
#101=EDGE_CURVE('',#83,#80,#66,.T.);
#102=EDGE_CURVE('',#82,#83,#67,.T.);
#103=EDGE_CURVE('',#82,#84,#47,.T.);
#104=EDGE_CURVE('',#85,#84,#68,.T.);
#105=EDGE_CURVE('',#84,#85,#69,.T.);
#106=EDGE_CURVE('',#84,#86,#48,.T.);
#107=EDGE_CURVE('',#87,#86,#70,.T.);
#108=EDGE_CURVE('',#86,#87,#71,.T.);
#109=EDGE_CURVE('',#86,#76,#49,.T.);
#110=ORIENTED_EDGE('',*,*,#88,.T.);
#111=ORIENTED_EDGE('',*,*,#89,.T.);
#112=ORIENTED_EDGE('',*,*,#90,.T.);
#113=ORIENTED_EDGE('',*,*,#91,.T.);
#114=ORIENTED_EDGE('',*,*,#90,.F.);
#115=ORIENTED_EDGE('',*,*,#92,.T.);
#116=ORIENTED_EDGE('',*,*,#93,.T.);
#117=ORIENTED_EDGE('',*,*,#91,.F.);
#118=ORIENTED_EDGE('',*,*,#94,.F.);
#119=ORIENTED_EDGE('',*,*,#95,.F.);
#120=ORIENTED_EDGE('',*,*,#96,.T.);
#121=ORIENTED_EDGE('',*,*,#88,.F.);
#122=ORIENTED_EDGE('',*,*,#89,.F.);
#123=ORIENTED_EDGE('',*,*,#96,.F.);
#124=ORIENTED_EDGE('',*,*,#94,.T.);
#125=ORIENTED_EDGE('',*,*,#95,.T.);
#126=ORIENTED_EDGE('',*,*,#97,.F.);
#127=ORIENTED_EDGE('',*,*,#98,.F.);
#128=ORIENTED_EDGE('',*,*,#99,.F.);
#129=ORIENTED_EDGE('',*,*,#100,.F.);
#130=ORIENTED_EDGE('',*,*,#101,.T.);
#131=ORIENTED_EDGE('',*,*,#98,.T.);
#132=ORIENTED_EDGE('',*,*,#97,.T.);
#133=ORIENTED_EDGE('',*,*,#101,.F.);
#134=ORIENTED_EDGE('',*,*,#102,.F.);
#135=ORIENTED_EDGE('',*,*,#99,.T.);
#136=ORIENTED_EDGE('',*,*,#103,.T.);
#137=ORIENTED_EDGE('',*,*,#104,.F.);
#138=ORIENTED_EDGE('',*,*,#105,.F.);
#139=ORIENTED_EDGE('',*,*,#103,.F.);
#140=ORIENTED_EDGE('',*,*,#102,.T.);
#141=ORIENTED_EDGE('',*,*,#100,.T.);
#142=ORIENTED_EDGE('',*,*,#104,.T.);
#143=ORIENTED_EDGE('',*,*,#106,.T.);
#144=ORIENTED_EDGE('',*,*,#107,.F.);
#145=ORIENTED_EDGE('',*,*,#108,.F.);
#146=ORIENTED_EDGE('',*,*,#106,.F.);
#147=ORIENTED_EDGE('',*,*,#105,.T.);
#148=ORIENTED_EDGE('',*,*,#107,.T.);
#149=ORIENTED_EDGE('',*,*,#109,.T.);
#150=ORIENTED_EDGE('',*,*,#92,.F.);
#151=ORIENTED_EDGE('',*,*,#93,.F.);
#152=ORIENTED_EDGE('',*,*,#109,.F.);
#153=ORIENTED_EDGE('',*,*,#108,.T.);
#154=CONICAL_SURFACE('',#187,9.75,0.785398163397451);
#155=CONICAL_SURFACE('',#206,26.5000000000001,0.643501108793284);
#156=CONICAL_SURFACE('',#209,19.2500000000001,0.288975409992566);
#157=CONICAL_SURFACE('',#212,15.2500000000001,0.620249485982822);
#158=ADVANCED_FACE('',(#26),#154,.F.);
#159=ADVANCED_FACE('',(#27,#22),#23,.T.);
#160=ADVANCED_FACE('',(#28),#21,.F.);
#161=ADVANCED_FACE('',(#29),#24,.T.);
#162=ADVANCED_FACE('',(#30),#25,.T.);
#163=ADVANCED_FACE('',(#31),#14,.T.);
#164=ADVANCED_FACE('',(#32),#155,.T.);
#165=ADVANCED_FACE('',(#33),#156,.T.);
#166=ADVANCED_FACE('',(#34),#157,.T.);
#167=CLOSED_SHELL('',(#158,#159,#160,#161,#162,#163,#164,#165,#166));
#168=DERIVED_UNIT_ELEMENT(#170,1.);
#169=DERIVED_UNIT_ELEMENT(#325,3.);
#170=(
MASS_UNIT()
NAMED_UNIT(*)
SI_UNIT($,.GRAM.)
);
#171=DERIVED_UNIT((#168,#169));
#172=MEASURE_REPRESENTATION_ITEM('density measure',
POSITIVE_RATIO_MEASURE(1.),#171);
#173=PROPERTY_DEFINITION_REPRESENTATION(#178,#175);
#174=PROPERTY_DEFINITION_REPRESENTATION(#179,#176);
#175=REPRESENTATION('material name',(#177),#322);
#176=REPRESENTATION('density',(#172),#322);
#177=DESCRIPTIVE_REPRESENTATION_ITEM('Gen\X\E9rico','Gen\X\E9rico');
#178=PROPERTY_DEFINITION('material property','material name',#332);
#179=PROPERTY_DEFINITION('material property','density of part',#332);
#180=DATE_TIME_ROLE('creation_date');
#181=CC_DESIGN_DATE_AND_TIME_ASSIGNMENT(#182,#180,(#332));
#182=DATE_AND_TIME(#183,#184);
#183=CALENDAR_DATE(2015,28,1);
#184=LOCAL_TIME(11,37,44.,#185);
#185=COORDINATED_UNIVERSAL_TIME_OFFSET(0,0,.BEHIND.);
#186=AXIS2_PLACEMENT_3D('placement',#272,#213,#214);
#187=AXIS2_PLACEMENT_3D('',#273,#215,#216);
#188=AXIS2_PLACEMENT_3D('',#276,#217,#218);
#189=AXIS2_PLACEMENT_3D('',#277,#219,#220);
#190=AXIS2_PLACEMENT_3D('',#280,#222,#223);
#191=AXIS2_PLACEMENT_3D('',#281,#224,#225);
#192=AXIS2_PLACEMENT_3D('',#284,#226,#227);
#193=AXIS2_PLACEMENT_3D('',#285,#228,#229);
#194=AXIS2_PLACEMENT_3D('',#286,#230,#231);
#195=AXIS2_PLACEMENT_3D('',#289,#232,#233);
#196=AXIS2_PLACEMENT_3D('',#290,#234,#235);
#197=AXIS2_PLACEMENT_3D('',#292,#237,#238);
#198=AXIS2_PLACEMENT_3D('',#293,#239,#240);
#199=AXIS2_PLACEMENT_3D('',#296,#241,#242);
#200=AXIS2_PLACEMENT_3D('',#297,#243,#244);
#201=AXIS2_PLACEMENT_3D('',#298,#245,#246);
#202=AXIS2_PLACEMENT_3D('',#301,#247,#248);
#203=AXIS2_PLACEMENT_3D('',#303,#249,#250);
#204=AXIS2_PLACEMENT_3D('',#304,#251,#252);
#205=AXIS2_PLACEMENT_3D('',#305,#253,#254);
#206=AXIS2_PLACEMENT_3D('',#306,#255,#256);
#207=AXIS2_PLACEMENT_3D('',#310,#258,#259);
#208=AXIS2_PLACEMENT_3D('',#311,#260,#261);
#209=AXIS2_PLACEMENT_3D('',#312,#262,#263);
#210=AXIS2_PLACEMENT_3D('',#316,#265,#266);
#211=AXIS2_PLACEMENT_3D('',#317,#267,#268);
#212=AXIS2_PLACEMENT_3D('',#318,#269,#270);
#213=DIRECTION('axis',(0.,0.,1.));
#214=DIRECTION('refdir',(1.,0.,0.));
#215=DIRECTION('center_axis',(0.,1.,0.));
#216=DIRECTION('ref_axis',(1.,0.,0.));
#217=DIRECTION('center_axis',(0.,-1.,0.));
#218=DIRECTION('ref_axis',(1.,0.,0.));
#219=DIRECTION('center_axis',(0.,-1.,0.));
#220=DIRECTION('ref_axis',(1.,0.,0.));
#221=DIRECTION('',(-0.707106781186549,0.707106781186546,8.65956056235495E-17));
#222=DIRECTION('center_axis',(0.,1.,0.));
#223=DIRECTION('ref_axis',(1.,0.,0.));
#224=DIRECTION('center_axis',(0.,1.,0.));
#225=DIRECTION('ref_axis',(0.,0.,1.));
#226=DIRECTION('center_axis',(0.,1.,0.));
#227=DIRECTION('ref_axis',(-1.,0.,0.));
#228=DIRECTION('center_axis',(0.,1.,0.));
#229=DIRECTION('ref_axis',(-1.,0.,0.));
#230=DIRECTION('center_axis',(0.,1.,0.));
#231=DIRECTION('ref_axis',(-1.,0.,0.));
#232=DIRECTION('center_axis',(0.,1.,0.));
#233=DIRECTION('ref_axis',(-1.,0.,0.));
#234=DIRECTION('center_axis',(0.,1.,0.));
#235=DIRECTION('ref_axis',(-1.,0.,0.));
#236=DIRECTION('',(0.,1.,0.));
#237=DIRECTION('center_axis',(0.,1.,0.));
#238=DIRECTION('ref_axis',(0.,0.,1.));
#239=DIRECTION('center_axis',(0.,-1.,0.));
#240=DIRECTION('ref_axis',(0.,0.,-1.));
#241=DIRECTION('center_axis',(0.,1.,0.));
#242=DIRECTION('ref_axis',(-1.,0.,0.));
#243=DIRECTION('center_axis',(0.,1.,0.));
#244=DIRECTION('ref_axis',(-1.,0.,0.));
#245=DIRECTION('center_axis',(0.,1.,0.));
#246=DIRECTION('ref_axis',(0.,0.,1.));
#247=DIRECTION('center_axis',(0.,1.,0.));
#248=DIRECTION('ref_axis',(-1.,0.,0.));
#249=DIRECTION('center_axis',(0.,1.,0.));
#250=DIRECTION('ref_axis',(-1.,0.,0.));
#251=DIRECTION('center_axis',(-1.,0.,1.22464679914735E-16));
#252=DIRECTION('ref_axis',(-1.22464679914735E-16,0.,-1.));
#253=DIRECTION('center_axis',(0.,1.,0.));
#254=DIRECTION('ref_axis',(-1.,0.,0.));
#255=DIRECTION('center_axis',(0.,-1.,0.));
#256=DIRECTION('ref_axis',(-1.,0.,0.));
#257=DIRECTION('',(-0.6,0.8,-7.34788079488412E-17));
#258=DIRECTION('center_axis',(0.,1.,0.));
#259=DIRECTION('ref_axis',(-1.,0.,0.));
#260=DIRECTION('center_axis',(0.,1.,0.));
#261=DIRECTION('ref_axis',(-1.,0.,0.));
#262=DIRECTION('center_axis',(0.,-1.,0.));
#263=DIRECTION('ref_axis',(-1.,0.,0.));
#264=DIRECTION('',(-0.284970268082962,0.958536356279054,-3.48987926659962E-17));
#265=DIRECTION('center_axis',(0.,1.,0.));
#266=DIRECTION('ref_axis',(-1.,0.,0.));
#267=DIRECTION('center_axis',(0.,1.,0.));
#268=DIRECTION('ref_axis',(-1.,0.,0.));
#269=DIRECTION('center_axis',(0.,-1.,0.));
#270=DIRECTION('ref_axis',(-1.,0.,0.));
#271=DIRECTION('',(-0.581238193719096,0.813733471206735,-7.11811493480281E-17));
#272=CARTESIAN_POINT('',(0.,0.,0.));
#273=CARTESIAN_POINT('Origin',(0.,35.75,0.));
#274=CARTESIAN_POINT('',(-9.5,35.5,-1.163414E-15));
#275=CARTESIAN_POINT('',(9.5,35.5,-1.16341445918999E-15));
#276=CARTESIAN_POINT('Origin',(0.,35.5,0.));
#277=CARTESIAN_POINT('Origin',(0.,35.5,0.));
#278=CARTESIAN_POINT('',(-10.,36.,1.224647E-15));
#279=CARTESIAN_POINT('',(-9.75,35.75,1.19403062916867E-15));
#280=CARTESIAN_POINT('Origin',(0.,36.,0.));
#281=CARTESIAN_POINT('Origin',(-11.75,36.,0.));
#282=CARTESIAN_POINT('',(-14.,36.,0.));
#283=CARTESIAN_POINT('',(14.,36.,1.7145055188063E-15));
#284=CARTESIAN_POINT('Origin',(0.,36.,0.));
#285=CARTESIAN_POINT('Origin',(0.,36.,0.));
#286=CARTESIAN_POINT('Origin',(0.,29.,0.));
#287=CARTESIAN_POINT('',(-9.5,22.,0.));
#288=CARTESIAN_POINT('',(9.5,22.,-1.16341445918999E-15));
#289=CARTESIAN_POINT('Origin',(0.,22.,0.));
#290=CARTESIAN_POINT('Origin',(0.,22.,0.));
#291=CARTESIAN_POINT('',(9.5,29.,-1.16341445918999E-15));
#292=CARTESIAN_POINT('Origin',(-4.75,22.,0.));
#293=CARTESIAN_POINT('Origin',(-15.5,0.,0.));
#294=CARTESIAN_POINT('',(-31.,0.,0.));
#295=CARTESIAN_POINT('',(-3.7964050773568E-15,0.,-31.));
#296=CARTESIAN_POINT('Origin',(0.,0.,0.));
#297=CARTESIAN_POINT('Origin',(0.,0.,0.));
#298=CARTESIAN_POINT('Origin',(0.,1.,0.));
#299=CARTESIAN_POINT('',(-31.,2.,0.));
#300=CARTESIAN_POINT('',(31.,2.00000000000002,3.7964050773568E-15));
#301=CARTESIAN_POINT('Origin',(0.,2.,0.));
#302=CARTESIAN_POINT('',(-3.7964050773568E-15,2.,-31.));
#303=CARTESIAN_POINT('Origin',(0.,2.,0.));
#304=CARTESIAN_POINT('Origin',(-3.7964050773568E-15,1.,-31.));
#305=CARTESIAN_POINT('Origin',(0.,2.,0.));
#306=CARTESIAN_POINT('Origin',(0.,8.,0.));
#307=CARTESIAN_POINT('',(22.0000000000001,14.,2.69422295812419E-15));
#308=CARTESIAN_POINT('',(26.5000000000001,8.,3.24531401774049E-15));
#309=CARTESIAN_POINT('',(-22.0000000000001,14.,0.));
#310=CARTESIAN_POINT('Origin',(0.,14.,0.));
#311=CARTESIAN_POINT('Origin',(0.,14.,0.));
#312=CARTESIAN_POINT('Origin',(0.,23.25,0.));
#313=CARTESIAN_POINT('',(16.5000000000001,32.5,2.02066721859315E-15));
#314=CARTESIAN_POINT('',(19.2500000000001,23.25,2.35744508835867E-15));
#315=CARTESIAN_POINT('',(-16.5000000000001,32.5,0.));
#316=CARTESIAN_POINT('Origin',(0.,32.5,0.));
#317=CARTESIAN_POINT('Origin',(0.,32.5,0.));
#318=CARTESIAN_POINT('Origin',(0.,34.25,0.));
#319=CARTESIAN_POINT('',(15.2500000000001,34.25,1.86758636869972E-15));
#320=UNCERTAINTY_MEASURE_WITH_UNIT(LENGTH_MEASURE(0.01),#324,
'DISTANCE_ACCURACY_VALUE',
'Maximum model space distance between geometric entities at asserted c
onnectivities');
#321=UNCERTAINTY_MEASURE_WITH_UNIT(LENGTH_MEASURE(0.01),#324,
'DISTANCE_ACCURACY_VALUE',
'Maximum model space distance between geometric entities at asserted c
onnectivities');
#322=(
GEOMETRIC_REPRESENTATION_CONTEXT(3)
GLOBAL_UNCERTAINTY_ASSIGNED_CONTEXT((#320))
GLOBAL_UNIT_ASSIGNED_CONTEXT((#324,#326,#327))
REPRESENTATION_CONTEXT('','3D')
);
#323=(
GEOMETRIC_REPRESENTATION_CONTEXT(3)
GLOBAL_UNCERTAINTY_ASSIGNED_CONTEXT((#321))
GLOBAL_UNIT_ASSIGNED_CONTEXT((#324,#326,#327))
REPRESENTATION_CONTEXT('','3D')
);
#324=(
LENGTH_UNIT()
NAMED_UNIT(*)
SI_UNIT(.MILLI.,.METRE.)
);
#325=(
LENGTH_UNIT()
NAMED_UNIT(*)
SI_UNIT(.CENTI.,.METRE.)
);
#326=(
NAMED_UNIT(*)
PLANE_ANGLE_UNIT()
SI_UNIT($,.RADIAN.)
);
#327=(
NAMED_UNIT(*)
SI_UNIT($,.STERADIAN.)
SOLID_ANGLE_UNIT()
);
#328=SHAPE_DEFINITION_REPRESENTATION(#329,#330);
#329=PRODUCT_DEFINITION_SHAPE('',$,#332);
#330=SHAPE_REPRESENTATION('',(#186),#322);
#331=DESIGN_CONTEXT('part definition',#336,'design');
#332=PRODUCT_DEFINITION('vsa62ecun','vsa62ecun',#333,#331);
#333=PRODUCT_DEFINITION_FORMATION('',$,#338);
#334=PRODUCT_RELATED_PRODUCT_CATEGORY('vsa62ecun','vsa62ecun',(#338));
#335=APPLICATION_PROTOCOL_DEFINITION('international standard',
'ap203_configuration_controlled_3d_design_of_mechanical_parts_and_asse
mblies_mim_lf',2004,#336);
#336=APPLICATION_CONTEXT(
'Configuration Controlled 3D Design of Mechanical Parts and Assemblies');
#337=MECHANICAL_CONTEXT('part definition',#336,'mechanical');
#338=PRODUCT('vsa62ecun','vsa62ecun',$,(#337));
#339=PRESENTATION_STYLE_ASSIGNMENT((#342));
#340=PRESENTATION_STYLE_ASSIGNMENT((#343));
#341=PRESENTATION_STYLE_ASSIGNMENT((#344));
#342=SURFACE_STYLE_USAGE(.BOTH.,#351);
#343=SURFACE_STYLE_USAGE(.BOTH.,#352);
#344=SURFACE_STYLE_USAGE(.BOTH.,#353);
#345=SURFACE_STYLE_RENDERING_WITH_PROPERTIES($,#363,(#348));
#346=SURFACE_STYLE_RENDERING_WITH_PROPERTIES($,#364,(#349));
#347=SURFACE_STYLE_RENDERING_WITH_PROPERTIES($,#365,(#350));
#348=SURFACE_STYLE_TRANSPARENT(0.);
#349=SURFACE_STYLE_TRANSPARENT(0.);
#350=SURFACE_STYLE_TRANSPARENT(0.);
#351=SURFACE_SIDE_STYLE('',(#354,#345));
#352=SURFACE_SIDE_STYLE('',(#355,#346));
#353=SURFACE_SIDE_STYLE('',(#356,#347));
#354=SURFACE_STYLE_FILL_AREA(#357);
#355=SURFACE_STYLE_FILL_AREA(#358);
#356=SURFACE_STYLE_FILL_AREA(#359);
#357=FILL_AREA_STYLE('',(#360));
#358=FILL_AREA_STYLE('',(#361));
#359=FILL_AREA_STYLE('',(#362));
#360=FILL_AREA_STYLE_COLOUR('',#363);
#361=FILL_AREA_STYLE_COLOUR('',#364);
#362=FILL_AREA_STYLE_COLOUR('',#365);
#363=COLOUR_RGB('',0.749019607843137,0.749019607843137,0.749019607843137);
#364=COLOUR_RGB('',0.752941176470588,0.752941176470588,0.752941176470588);
#365=COLOUR_RGB('',0.32156862745098,0.32156862745098,0.32156862745098);
ENDSEC;
END-ISO-10303-21;
