ISO-10303-21;
HEADER;
/* Generated by software containing ST-Developer
 * from STEP Tools, Inc. (www.steptools.com) 
 */

FILE_DESCRIPTION(
/* description */ (''),
/* implementation_level */ '2;1');

FILE_NAME(
/* name */ 
'C:\\Users\\nebuc\\OneDrive\\Escritorio\\AR VC Cups\\VSA II\\vsa80.stp',

/* time_stamp */ '2020-03-26T09:40:25+01:00',
/* author */ ('nebuc'),
/* organization */ (''),
/* preprocessor_version */ 'ST-DEVELOPER v17',
/* originating_system */ 'Autodesk Inventor 2019',
/* authorisation */ '');

FILE_SCHEMA (('AUTOMOTIVE_DESIGN { 1 0 10303 214 3 1 1 }'));
ENDSEC;

DATA;
#10=MECHANICAL_DESIGN_GEOMETRIC_PRESENTATION_REPRESENTATION('',(#103,#104,
#105,#106,#107,#108,#109),#229);
#11=SHAPE_REPRESENTATION_RELATIONSHIP('SRR','None',#236,#12);
#12=ADVANCED_BREP_SHAPE_REPRESENTATION('',(#13),#228);
#13=MANIFOLD_SOLID_BREP('Solid1',#116);
#14=CYLINDRICAL_SURFACE('',#153,9.50000000000006);
#15=TOROIDAL_SURFACE('',#145,40.,1.);
#16=LINE('',#211,#18);
#17=LINE('',#225,#19);
#18=VECTOR('',#174,26.5);
#19=VECTOR('',#193,9.50000000000006);
#20=CONICAL_SURFACE('',#141,26.5,0.678370690348074);
#21=FACE_BOUND('',#29,.T.);
#22=FACE_OUTER_BOUND('',#28,.T.);
#23=FACE_OUTER_BOUND('',#30,.T.);
#24=FACE_OUTER_BOUND('',#31,.T.);
#25=FACE_OUTER_BOUND('',#32,.T.);
#26=FACE_OUTER_BOUND('',#33,.T.);
#27=FACE_OUTER_BOUND('',#34,.T.);
#28=EDGE_LOOP('',(#72,#73));
#29=EDGE_LOOP('',(#74,#75));
#30=EDGE_LOOP('',(#76,#77,#78,#79,#80,#81,#82));
#31=EDGE_LOOP('',(#83,#84,#85,#86,#87,#88,#89));
#32=EDGE_LOOP('',(#90,#91));
#33=EDGE_LOOP('',(#92,#93));
#34=EDGE_LOOP('',(#94,#95,#96,#97,#98,#99));
#35=CIRCLE('',#137,13.);
#36=CIRCLE('',#138,13.);
#37=CIRCLE('',#139,9.50000000000006);
#38=CIRCLE('',#140,9.50000000000006);
#39=CIRCLE('',#142,40.);
#40=CIRCLE('',#143,40.);
#41=CIRCLE('',#144,40.);
#42=CIRCLE('',#146,40.);
#43=CIRCLE('',#147,40.);
#44=CIRCLE('',#148,1.);
#45=CIRCLE('',#151,9.50000000000006);
#46=CIRCLE('',#152,9.50000000000006);
#47=VERTEX_POINT('',#196);
#48=VERTEX_POINT('',#197);
#49=VERTEX_POINT('',#200);
#50=VERTEX_POINT('',#201);
#51=VERTEX_POINT('',#205);
#52=VERTEX_POINT('',#206);
#53=VERTEX_POINT('',#208);
#54=VERTEX_POINT('',#213);
#55=VERTEX_POINT('',#214);
#56=VERTEX_POINT('',#220);
#57=VERTEX_POINT('',#221);
#58=EDGE_CURVE('',#47,#48,#35,.T.);
#59=EDGE_CURVE('',#48,#47,#36,.T.);
#60=EDGE_CURVE('',#49,#50,#37,.T.);
#61=EDGE_CURVE('',#50,#49,#38,.T.);
#62=EDGE_CURVE('',#51,#52,#39,.T.);
#63=EDGE_CURVE('',#53,#51,#40,.T.);
#64=EDGE_CURVE('',#52,#53,#41,.T.);
#65=EDGE_CURVE('',#52,#48,#16,.T.);
#66=EDGE_CURVE('',#54,#55,#42,.T.);
#67=EDGE_CURVE('',#55,#54,#43,.T.);
#68=EDGE_CURVE('',#55,#53,#44,.T.);
#69=EDGE_CURVE('',#56,#57,#45,.T.);
#70=EDGE_CURVE('',#57,#56,#46,.T.);
#71=EDGE_CURVE('',#57,#50,#17,.T.);
#72=ORIENTED_EDGE('',*,*,#58,.F.);
#73=ORIENTED_EDGE('',*,*,#59,.F.);
#74=ORIENTED_EDGE('',*,*,#60,.T.);
#75=ORIENTED_EDGE('',*,*,#61,.T.);
#76=ORIENTED_EDGE('',*,*,#62,.F.);
#77=ORIENTED_EDGE('',*,*,#63,.F.);
#78=ORIENTED_EDGE('',*,*,#64,.F.);
#79=ORIENTED_EDGE('',*,*,#65,.T.);
#80=ORIENTED_EDGE('',*,*,#59,.T.);
#81=ORIENTED_EDGE('',*,*,#58,.T.);
#82=ORIENTED_EDGE('',*,*,#65,.F.);
#83=ORIENTED_EDGE('',*,*,#66,.F.);
#84=ORIENTED_EDGE('',*,*,#67,.F.);
#85=ORIENTED_EDGE('',*,*,#68,.T.);
#86=ORIENTED_EDGE('',*,*,#63,.T.);
#87=ORIENTED_EDGE('',*,*,#62,.T.);
#88=ORIENTED_EDGE('',*,*,#64,.T.);
#89=ORIENTED_EDGE('',*,*,#68,.F.);
#90=ORIENTED_EDGE('',*,*,#66,.T.);
#91=ORIENTED_EDGE('',*,*,#67,.T.);
#92=ORIENTED_EDGE('',*,*,#69,.F.);
#93=ORIENTED_EDGE('',*,*,#70,.F.);
#94=ORIENTED_EDGE('',*,*,#69,.T.);
#95=ORIENTED_EDGE('',*,*,#71,.T.);
#96=ORIENTED_EDGE('',*,*,#60,.F.);
#97=ORIENTED_EDGE('',*,*,#61,.F.);
#98=ORIENTED_EDGE('',*,*,#71,.F.);
#99=ORIENTED_EDGE('',*,*,#70,.T.);
#100=PLANE('',#136);
#101=PLANE('',#149);
#102=PLANE('',#150);
#103=STYLED_ITEM('',(#246),#110);
#104=STYLED_ITEM('',(#247),#111);
#105=STYLED_ITEM('',(#247),#112);
#106=STYLED_ITEM('',(#247),#113);
#107=STYLED_ITEM('',(#246),#114);
#108=STYLED_ITEM('',(#246),#115);
#109=STYLED_ITEM('',(#245),#13);
#110=ADVANCED_FACE('',(#22,#21),#100,.T.);
#111=ADVANCED_FACE('',(#23),#20,.T.);
#112=ADVANCED_FACE('',(#24),#15,.T.);
#113=ADVANCED_FACE('',(#25),#101,.T.);
#114=ADVANCED_FACE('',(#26),#102,.T.);
#115=ADVANCED_FACE('',(#27),#14,.F.);
#116=CLOSED_SHELL('',(#110,#111,#112,#113,#114,#115));
#117=DERIVED_UNIT_ELEMENT(#119,1.);
#118=DERIVED_UNIT_ELEMENT(#231,3.);
#119=(
MASS_UNIT()
NAMED_UNIT(*)
SI_UNIT($,.GRAM.)
);
#120=DERIVED_UNIT((#117,#118));
#121=MEASURE_REPRESENTATION_ITEM('density measure',
POSITIVE_RATIO_MEASURE(1.),#120);
#122=PROPERTY_DEFINITION_REPRESENTATION(#127,#124);
#123=PROPERTY_DEFINITION_REPRESENTATION(#128,#125);
#124=REPRESENTATION('material name',(#126),#228);
#125=REPRESENTATION('density',(#121),#228);
#126=DESCRIPTIVE_REPRESENTATION_ITEM('Generic','Generic');
#127=PROPERTY_DEFINITION('material property','material name',#238);
#128=PROPERTY_DEFINITION('material property','density of part',#238);
#129=DATE_TIME_ROLE('creation_date');
#130=APPLIED_DATE_AND_TIME_ASSIGNMENT(#131,#129,(#238));
#131=DATE_AND_TIME(#132,#133);
#132=CALENDAR_DATE(2007,31,10);
#133=LOCAL_TIME(11,28,15.,#134);
#134=COORDINATED_UNIVERSAL_TIME_OFFSET(0,0,.BEHIND.);
#135=AXIS2_PLACEMENT_3D('placement',#194,#154,#155);
#136=AXIS2_PLACEMENT_3D('',#195,#156,#157);
#137=AXIS2_PLACEMENT_3D('',#198,#158,#159);
#138=AXIS2_PLACEMENT_3D('',#199,#160,#161);
#139=AXIS2_PLACEMENT_3D('',#202,#162,#163);
#140=AXIS2_PLACEMENT_3D('',#203,#164,#165);
#141=AXIS2_PLACEMENT_3D('',#204,#166,#167);
#142=AXIS2_PLACEMENT_3D('',#207,#168,#169);
#143=AXIS2_PLACEMENT_3D('',#209,#170,#171);
#144=AXIS2_PLACEMENT_3D('',#210,#172,#173);
#145=AXIS2_PLACEMENT_3D('',#212,#175,#176);
#146=AXIS2_PLACEMENT_3D('',#215,#177,#178);
#147=AXIS2_PLACEMENT_3D('',#216,#179,#180);
#148=AXIS2_PLACEMENT_3D('',#217,#181,#182);
#149=AXIS2_PLACEMENT_3D('',#218,#183,#184);
#150=AXIS2_PLACEMENT_3D('',#219,#185,#186);
#151=AXIS2_PLACEMENT_3D('',#222,#187,#188);
#152=AXIS2_PLACEMENT_3D('',#223,#189,#190);
#153=AXIS2_PLACEMENT_3D('',#224,#191,#192);
#154=DIRECTION('axis',(0.,0.,1.));
#155=DIRECTION('refdir',(1.,0.,0.));
#156=DIRECTION('center_axis',(0.,1.,0.));
#157=DIRECTION('ref_axis',(0.,0.,1.));
#158=DIRECTION('center_axis',(0.,-1.,0.));
#159=DIRECTION('ref_axis',(-1.,0.,0.));
#160=DIRECTION('center_axis',(0.,-1.,0.));
#161=DIRECTION('ref_axis',(-1.,0.,0.));
#162=DIRECTION('center_axis',(0.,-1.,0.));
#163=DIRECTION('ref_axis',(-1.,0.,0.));
#164=DIRECTION('center_axis',(0.,-1.,0.));
#165=DIRECTION('ref_axis',(-1.,0.,0.));
#166=DIRECTION('center_axis',(0.,-1.,0.));
#167=DIRECTION('ref_axis',(-1.,0.,0.));
#168=DIRECTION('center_axis',(0.,-1.,0.));
#169=DIRECTION('ref_axis',(-1.,0.,0.));
#170=DIRECTION('center_axis',(0.,-1.,0.));
#171=DIRECTION('ref_axis',(-1.,0.,0.));
#172=DIRECTION('center_axis',(0.,-1.,0.));
#173=DIRECTION('ref_axis',(-1.,0.,0.));
#174=DIRECTION('',(-0.627525283230768,0.778596184749286,-7.68496829492596E-17));
#175=DIRECTION('center_axis',(0.,-1.,0.));
#176=DIRECTION('ref_axis',(0.,0.,-1.));
#177=DIRECTION('center_axis',(0.,-1.,0.));
#178=DIRECTION('ref_axis',(-1.,0.,0.));
#179=DIRECTION('center_axis',(0.,-1.,0.));
#180=DIRECTION('ref_axis',(-1.,0.,0.));
#181=DIRECTION('center_axis',(-1.,0.,-1.22464679914735E-16));
#182=DIRECTION('ref_axis',(-1.22464679914735E-16,0.,1.));
#183=DIRECTION('center_axis',(0.,-1.,0.));
#184=DIRECTION('ref_axis',(0.,0.,-1.));
#185=DIRECTION('center_axis',(0.,1.,0.));
#186=DIRECTION('ref_axis',(0.,0.,1.));
#187=DIRECTION('center_axis',(0.,-1.,0.));
#188=DIRECTION('ref_axis',(-1.,0.,0.));
#189=DIRECTION('center_axis',(0.,-1.,0.));
#190=DIRECTION('ref_axis',(-1.,0.,0.));
#191=DIRECTION('center_axis',(0.,-1.,0.));
#192=DIRECTION('ref_axis',(-1.,0.,0.));
#193=DIRECTION('',(0.,1.,0.));
#194=CARTESIAN_POINT('',(0.,0.,0.));
#195=CARTESIAN_POINT('Origin',(-11.25,35.5,0.));
#196=CARTESIAN_POINT('',(-13.,35.5,0.));
#197=CARTESIAN_POINT('',(13.,35.5,1.59204083889156E-15));
#198=CARTESIAN_POINT('Origin',(0.,35.5,0.));
#199=CARTESIAN_POINT('Origin',(0.,35.5,0.));
#200=CARTESIAN_POINT('',(-9.50000000000006,35.5,0.));
#201=CARTESIAN_POINT('',(9.50000000000006,35.5,1.16341445918999E-15));
#202=CARTESIAN_POINT('Origin',(0.,35.5,0.));
#203=CARTESIAN_POINT('Origin',(0.,35.5,0.));
#204=CARTESIAN_POINT('Origin',(0.,18.75,0.));
#205=CARTESIAN_POINT('',(-40.,2.00000000000003,0.));
#206=CARTESIAN_POINT('',(40.,2.00000000000003,4.89858719658941E-15));
#207=CARTESIAN_POINT('Origin',(0.,2.00000000000003,0.));
#208=CARTESIAN_POINT('',(-4.89858719658941E-15,2.00000000000003,40.));
#209=CARTESIAN_POINT('Origin',(0.,2.00000000000003,0.));
#210=CARTESIAN_POINT('Origin',(0.,2.00000000000003,0.));
#211=CARTESIAN_POINT('',(26.5,18.75,3.24531401774049E-15));
#212=CARTESIAN_POINT('Origin',(0.,0.999999999999972,0.));
#213=CARTESIAN_POINT('',(-40.,-2.8421709430404E-14,0.));
#214=CARTESIAN_POINT('',(-4.89858719658941E-15,-2.84494650060196E-14,40.));
#215=CARTESIAN_POINT('Origin',(0.,-2.8421709430404E-14,0.));
#216=CARTESIAN_POINT('Origin',(0.,-2.8421709430404E-14,0.));
#217=CARTESIAN_POINT('Origin',(-4.89858719658941E-15,0.999999999999972,
40.));
#218=CARTESIAN_POINT('Origin',(-20.,-1.4210854715202E-14,0.));
#219=CARTESIAN_POINT('Origin',(-4.75000000000003,22.5,0.));
#220=CARTESIAN_POINT('',(-9.50000000000006,22.5,0.));
#221=CARTESIAN_POINT('',(9.50000000000006,22.5,1.16341445918999E-15));
#222=CARTESIAN_POINT('Origin',(0.,22.5,0.));
#223=CARTESIAN_POINT('Origin',(0.,22.5,0.));
#224=CARTESIAN_POINT('Origin',(0.,29.,0.));
#225=CARTESIAN_POINT('',(9.50000000000006,29.,1.16341445918999E-15));
#226=UNCERTAINTY_MEASURE_WITH_UNIT(LENGTH_MEASURE(0.01),#230,
'DISTANCE_ACCURACY_VALUE',
'Maximum model space distance between geometric entities at asserted c
onnectivities');
#227=UNCERTAINTY_MEASURE_WITH_UNIT(LENGTH_MEASURE(0.01),#230,
'DISTANCE_ACCURACY_VALUE',
'Maximum model space distance between geometric entities at asserted c
onnectivities');
#228=(
GEOMETRIC_REPRESENTATION_CONTEXT(3)
GLOBAL_UNCERTAINTY_ASSIGNED_CONTEXT((#226))
GLOBAL_UNIT_ASSIGNED_CONTEXT((#230,#233,#232))
REPRESENTATION_CONTEXT('','3D')
);
#229=(
GEOMETRIC_REPRESENTATION_CONTEXT(3)
GLOBAL_UNCERTAINTY_ASSIGNED_CONTEXT((#227))
GLOBAL_UNIT_ASSIGNED_CONTEXT((#230,#233,#232))
REPRESENTATION_CONTEXT('','3D')
);
#230=(
LENGTH_UNIT()
NAMED_UNIT(*)
SI_UNIT(.MILLI.,.METRE.)
);
#231=(
LENGTH_UNIT()
NAMED_UNIT(*)
SI_UNIT(.CENTI.,.METRE.)
);
#232=(
NAMED_UNIT(*)
SI_UNIT($,.STERADIAN.)
SOLID_ANGLE_UNIT()
);
#233=(
NAMED_UNIT(*)
PLANE_ANGLE_UNIT()
SI_UNIT($,.RADIAN.)
);
#234=SHAPE_DEFINITION_REPRESENTATION(#235,#236);
#235=PRODUCT_DEFINITION_SHAPE('',$,#238);
#236=SHAPE_REPRESENTATION('',(#135),#228);
#237=PRODUCT_DEFINITION_CONTEXT('part definition',#242,'design');
#238=PRODUCT_DEFINITION('46_3D_vsa80','46_3D_vsa80',#239,#237);
#239=PRODUCT_DEFINITION_FORMATION('',$,#244);
#240=PRODUCT_RELATED_PRODUCT_CATEGORY('46_3D_vsa80','46_3D_vsa80',(#244));
#241=APPLICATION_PROTOCOL_DEFINITION('international standard',
'automotive_design',2009,#242);
#242=APPLICATION_CONTEXT(
'Core Data for Automotive Mechanical Design Process');
#243=PRODUCT_CONTEXT('part definition',#242,'mechanical');
#244=PRODUCT('46_3D_vsa80','46_3D_vsa80',$,(#243));
#245=PRESENTATION_STYLE_ASSIGNMENT((#248));
#246=PRESENTATION_STYLE_ASSIGNMENT((#249));
#247=PRESENTATION_STYLE_ASSIGNMENT((#250));
#248=SURFACE_STYLE_USAGE(.BOTH.,#251);
#249=SURFACE_STYLE_USAGE(.BOTH.,#252);
#250=SURFACE_STYLE_USAGE(.BOTH.,#253);
#251=SURFACE_SIDE_STYLE('',(#254));
#252=SURFACE_SIDE_STYLE('',(#255));
#253=SURFACE_SIDE_STYLE('',(#256));
#254=SURFACE_STYLE_FILL_AREA(#257);
#255=SURFACE_STYLE_FILL_AREA(#258);
#256=SURFACE_STYLE_FILL_AREA(#259);
#257=FILL_AREA_STYLE('',(#260));
#258=FILL_AREA_STYLE('',(#261));
#259=FILL_AREA_STYLE('',(#262));
#260=FILL_AREA_STYLE_COLOUR('',#263);
#261=FILL_AREA_STYLE_COLOUR('',#264);
#262=FILL_AREA_STYLE_COLOUR('',#265);
#263=COLOUR_RGB('',0.749019607843137,0.749019607843137,0.749019607843137);
#264=COLOUR_RGB('',0.745098039215686,0.737254901960784,0.729411764705882);
#265=COLOUR_RGB('',0.313725490196078,0.313725490196078,0.313725490196078);
ENDSEC;
END-ISO-10303-21;
