ISO-10303-21;
HEADER;
/* Generated by software containing ST-Developer
 * from STEP Tools, Inc. (www.steptools.com) 
 */

FILE_DESCRIPTION(
/* description */ (''),
/* implementation_level */ '2;1');

FILE_NAME(
/* name */ 
'Z:\\05-VENTOSAS Y ACCESORIOS\\01-VENTOSAS\\ANTIGUOS (VENTOSAS)\\VGD\\
familia nova\\60x30\\vdlg100nit.stp',
/* time_stamp */ '2020-10-06T12:35:55+02:00',
/* author */ ('enginyeria'),
/* organization */ (''),
/* preprocessor_version */ 'ST-DEVELOPER v17.2',
/* originating_system */ 'Autodesk Inventor 2019',
/* authorisation */ '');

FILE_SCHEMA (('CONFIG_CONTROL_DESIGN'));
ENDSEC;

DATA;
#10=MECHANICAL_DESIGN_GEOMETRIC_PRESENTATION_REPRESENTATION('',(#13),#376);
#11=SHAPE_REPRESENTATION_RELATIONSHIP('SRR','None',#383,#12);
#12=ADVANCED_BREP_SHAPE_REPRESENTATION('',(#14),#375);
#13=STYLED_ITEM('',(#392),#14);
#14=MANIFOLD_SOLID_BREP('S\X\F3lido1',#180);
#15=FACE_BOUND('',#48,.T.);
#16=FACE_BOUND('',#51,.T.);
#17=FACE_BOUND('',#54,.T.);
#18=PLANE('',#216);
#19=PLANE('',#222);
#20=PLANE('',#228);
#21=CYLINDRICAL_SURFACE('',#213,35.5);
#22=CYLINDRICAL_SURFACE('',#219,23.25);
#23=CYLINDRICAL_SURFACE('',#225,7.50000000000015);
#24=LINE('',#343,#28);
#25=LINE('',#349,#29);
#26=LINE('',#357,#30);
#27=LINE('',#368,#31);
#28=VECTOR('',#257,42.8684970254407);
#29=VECTOR('',#264,35.5);
#30=VECTOR('',#273,23.25);
#31=VECTOR('',#286,7.50000000000015);
#32=CONICAL_SURFACE('',#210,42.8684970254407,0.74218415242882);
#33=(
BOUNDED_SURFACE()
B_SPLINE_SURFACE(2,2,((#304,#305,#306,#307,#308,#309,#310,#311,#312),(#313,
#314,#315,#316,#317,#318,#319,#320,#321),(#322,#323,#324,#325,#326,#327,
#328,#329,#330)),.UNSPECIFIED.,.F.,.T.,.F.)
B_SPLINE_SURFACE_WITH_KNOTS((3,3),(3,2,2,2,3),(0.636371771058492,0.648999703265366),
(-3.14159265358979,-1.5707963267949,0.,1.5707963267949,3.14159265358979),
 .UNSPECIFIED.)
GEOMETRIC_REPRESENTATION_ITEM()
RATIONAL_B_SPLINE_SURFACE(((1.,0.707106781186548,1.,0.707106781186548,1.,
0.707106781186548,1.,0.707106781186548,1.),(0.999980066982243,0.707092686414522,
0.999980066982243,0.707092686414522,0.999980066982243,0.707092686414522,
0.999980066982243,0.707092686414522,0.999980066982243),(1.,0.707106781186548,
1.,0.707106781186548,1.,0.707106781186548,1.,0.707106781186548,1.)))
REPRESENTATION_ITEM('')
SURFACE()
);
#34=FACE_OUTER_BOUND('',#43,.T.);
#35=FACE_OUTER_BOUND('',#44,.T.);
#36=FACE_OUTER_BOUND('',#45,.T.);
#37=FACE_OUTER_BOUND('',#46,.T.);
#38=FACE_OUTER_BOUND('',#47,.T.);
#39=FACE_OUTER_BOUND('',#49,.T.);
#40=FACE_OUTER_BOUND('',#50,.T.);
#41=FACE_OUTER_BOUND('',#52,.T.);
#42=FACE_OUTER_BOUND('',#53,.T.);
#43=EDGE_LOOP('',(#120,#121,#122,#123,#124,#125));
#44=EDGE_LOOP('',(#126,#127,#128,#129,#130,#131,#132));
#45=EDGE_LOOP('',(#133,#134,#135,#136,#137,#138,#139));
#46=EDGE_LOOP('',(#140,#141,#142,#143,#144,#145));
#47=EDGE_LOOP('',(#146,#147));
#48=EDGE_LOOP('',(#148,#149));
#49=EDGE_LOOP('',(#150,#151,#152,#153,#154,#155));
#50=EDGE_LOOP('',(#156,#157));
#51=EDGE_LOOP('',(#158,#159));
#52=EDGE_LOOP('',(#160,#161,#162,#163,#164,#165));
#53=EDGE_LOOP('',(#166,#167));
#54=EDGE_LOOP('',(#168,#169));
#55=CIRCLE('',#201,50.4810286747568);
#56=CIRCLE('',#202,50.4810286747568);
#57=CIRCLE('',#203,0.3);
#58=CIRCLE('',#204,50.2000000000002);
#59=CIRCLE('',#205,50.2000000000002);
#60=CIRCLE('',#206,50.2369940508813);
#61=CIRCLE('',#207,50.2369940508813);
#62=CIRCLE('',#208,32.2435901519279);
#63=CIRCLE('',#209,50.2369940508813);
#64=CIRCLE('',#211,35.5000000000001);
#65=CIRCLE('',#212,35.5000000000001);
#66=CIRCLE('',#214,35.5);
#67=CIRCLE('',#215,35.5);
#68=CIRCLE('',#217,23.25);
#69=CIRCLE('',#218,23.25);
#70=CIRCLE('',#220,23.2500000000001);
#71=CIRCLE('',#221,23.2500000000001);
#72=CIRCLE('',#223,7.50000000000007);
#73=CIRCLE('',#224,7.50000000000007);
#74=CIRCLE('',#226,7.50000000000023);
#75=CIRCLE('',#227,7.50000000000023);
#76=VERTEX_POINT('',#295);
#77=VERTEX_POINT('',#296);
#78=VERTEX_POINT('',#299);
#79=VERTEX_POINT('',#301);
#80=VERTEX_POINT('',#331);
#81=VERTEX_POINT('',#332);
#82=VERTEX_POINT('',#334);
#83=VERTEX_POINT('',#339);
#84=VERTEX_POINT('',#340);
#85=VERTEX_POINT('',#345);
#86=VERTEX_POINT('',#346);
#87=VERTEX_POINT('',#351);
#88=VERTEX_POINT('',#352);
#89=VERTEX_POINT('',#356);
#90=VERTEX_POINT('',#358);
#91=VERTEX_POINT('',#362);
#92=VERTEX_POINT('',#363);
#93=VERTEX_POINT('',#367);
#94=VERTEX_POINT('',#369);
#95=EDGE_CURVE('',#76,#77,#55,.T.);
#96=EDGE_CURVE('',#77,#76,#56,.T.);
#97=EDGE_CURVE('',#77,#78,#57,.T.);
#98=EDGE_CURVE('',#78,#79,#58,.T.);
#99=EDGE_CURVE('',#79,#78,#59,.T.);
#100=EDGE_CURVE('',#80,#81,#60,.T.);
#101=EDGE_CURVE('',#82,#80,#61,.T.);
#102=EDGE_CURVE('',#82,#77,#62,.T.);
#103=EDGE_CURVE('',#81,#82,#63,.T.);
#104=EDGE_CURVE('',#83,#84,#64,.T.);
#105=EDGE_CURVE('',#84,#83,#65,.T.);
#106=EDGE_CURVE('',#84,#81,#24,.T.);
#107=EDGE_CURVE('',#85,#86,#66,.T.);
#108=EDGE_CURVE('',#86,#85,#67,.T.);
#109=EDGE_CURVE('',#86,#84,#25,.T.);
#110=EDGE_CURVE('',#87,#88,#68,.T.);
#111=EDGE_CURVE('',#88,#87,#69,.T.);
#112=EDGE_CURVE('',#88,#89,#26,.T.);
#113=EDGE_CURVE('',#90,#89,#70,.T.);
#114=EDGE_CURVE('',#89,#90,#71,.T.);
#115=EDGE_CURVE('',#91,#92,#72,.T.);
#116=EDGE_CURVE('',#92,#91,#73,.T.);
#117=EDGE_CURVE('',#92,#93,#27,.T.);
#118=EDGE_CURVE('',#94,#93,#74,.T.);
#119=EDGE_CURVE('',#93,#94,#75,.T.);
#120=ORIENTED_EDGE('',*,*,#95,.F.);
#121=ORIENTED_EDGE('',*,*,#96,.F.);
#122=ORIENTED_EDGE('',*,*,#97,.T.);
#123=ORIENTED_EDGE('',*,*,#98,.T.);
#124=ORIENTED_EDGE('',*,*,#99,.T.);
#125=ORIENTED_EDGE('',*,*,#97,.F.);
#126=ORIENTED_EDGE('',*,*,#100,.F.);
#127=ORIENTED_EDGE('',*,*,#101,.F.);
#128=ORIENTED_EDGE('',*,*,#102,.T.);
#129=ORIENTED_EDGE('',*,*,#96,.T.);
#130=ORIENTED_EDGE('',*,*,#95,.T.);
#131=ORIENTED_EDGE('',*,*,#102,.F.);
#132=ORIENTED_EDGE('',*,*,#103,.F.);
#133=ORIENTED_EDGE('',*,*,#104,.F.);
#134=ORIENTED_EDGE('',*,*,#105,.F.);
#135=ORIENTED_EDGE('',*,*,#106,.T.);
#136=ORIENTED_EDGE('',*,*,#103,.T.);
#137=ORIENTED_EDGE('',*,*,#101,.T.);
#138=ORIENTED_EDGE('',*,*,#100,.T.);
#139=ORIENTED_EDGE('',*,*,#106,.F.);
#140=ORIENTED_EDGE('',*,*,#107,.F.);
#141=ORIENTED_EDGE('',*,*,#108,.F.);
#142=ORIENTED_EDGE('',*,*,#109,.T.);
#143=ORIENTED_EDGE('',*,*,#105,.T.);
#144=ORIENTED_EDGE('',*,*,#104,.T.);
#145=ORIENTED_EDGE('',*,*,#109,.F.);
#146=ORIENTED_EDGE('',*,*,#107,.T.);
#147=ORIENTED_EDGE('',*,*,#108,.T.);
#148=ORIENTED_EDGE('',*,*,#110,.F.);
#149=ORIENTED_EDGE('',*,*,#111,.F.);
#150=ORIENTED_EDGE('',*,*,#110,.T.);
#151=ORIENTED_EDGE('',*,*,#112,.T.);
#152=ORIENTED_EDGE('',*,*,#113,.F.);
#153=ORIENTED_EDGE('',*,*,#114,.F.);
#154=ORIENTED_EDGE('',*,*,#112,.F.);
#155=ORIENTED_EDGE('',*,*,#111,.T.);
#156=ORIENTED_EDGE('',*,*,#113,.T.);
#157=ORIENTED_EDGE('',*,*,#114,.T.);
#158=ORIENTED_EDGE('',*,*,#115,.F.);
#159=ORIENTED_EDGE('',*,*,#116,.F.);
#160=ORIENTED_EDGE('',*,*,#115,.T.);
#161=ORIENTED_EDGE('',*,*,#117,.T.);
#162=ORIENTED_EDGE('',*,*,#118,.F.);
#163=ORIENTED_EDGE('',*,*,#119,.F.);
#164=ORIENTED_EDGE('',*,*,#117,.F.);
#165=ORIENTED_EDGE('',*,*,#116,.T.);
#166=ORIENTED_EDGE('',*,*,#99,.F.);
#167=ORIENTED_EDGE('',*,*,#98,.F.);
#168=ORIENTED_EDGE('',*,*,#118,.T.);
#169=ORIENTED_EDGE('',*,*,#119,.T.);
#170=TOROIDAL_SURFACE('',#200,50.2000000000002,0.3);
#171=ADVANCED_FACE('',(#34),#170,.T.);
#172=ADVANCED_FACE('',(#35),#33,.F.);
#173=ADVANCED_FACE('',(#36),#32,.T.);
#174=ADVANCED_FACE('',(#37),#21,.T.);
#175=ADVANCED_FACE('',(#38,#15),#18,.T.);
#176=ADVANCED_FACE('',(#39),#22,.F.);
#177=ADVANCED_FACE('',(#40,#16),#19,.T.);
#178=ADVANCED_FACE('',(#41),#23,.F.);
#179=ADVANCED_FACE('',(#42,#17),#20,.T.);
#180=CLOSED_SHELL('',(#171,#172,#173,#174,#175,#176,#177,#178,#179));
#181=DERIVED_UNIT_ELEMENT(#183,1.);
#182=DERIVED_UNIT_ELEMENT(#378,3.);
#183=(
MASS_UNIT()
NAMED_UNIT(*)
SI_UNIT($,.GRAM.)
);
#184=DERIVED_UNIT((#181,#182));
#185=MEASURE_REPRESENTATION_ITEM('density measure',
POSITIVE_RATIO_MEASURE(1.),#184);
#186=PROPERTY_DEFINITION_REPRESENTATION(#191,#188);
#187=PROPERTY_DEFINITION_REPRESENTATION(#192,#189);
#188=REPRESENTATION('material name',(#190),#375);
#189=REPRESENTATION('density',(#185),#375);
#190=DESCRIPTIVE_REPRESENTATION_ITEM('Gen\X\E9rico','Gen\X\E9rico');
#191=PROPERTY_DEFINITION('material property','material name',#385);
#192=PROPERTY_DEFINITION('material property','density of part',#385);
#193=DATE_TIME_ROLE('creation_date');
#194=CC_DESIGN_DATE_AND_TIME_ASSIGNMENT(#195,#193,(#385));
#195=DATE_AND_TIME(#196,#197);
#196=CALENDAR_DATE(2020,6,10);
#197=LOCAL_TIME(10,35,9.,#198);
#198=COORDINATED_UNIVERSAL_TIME_OFFSET(0,0,.BEHIND.);
#199=AXIS2_PLACEMENT_3D('placement',#293,#229,#230);
#200=AXIS2_PLACEMENT_3D('',#294,#231,#232);
#201=AXIS2_PLACEMENT_3D('',#297,#233,#234);
#202=AXIS2_PLACEMENT_3D('',#298,#235,#236);
#203=AXIS2_PLACEMENT_3D('',#300,#237,#238);
#204=AXIS2_PLACEMENT_3D('',#302,#239,#240);
#205=AXIS2_PLACEMENT_3D('',#303,#241,#242);
#206=AXIS2_PLACEMENT_3D('',#333,#243,#244);
#207=AXIS2_PLACEMENT_3D('',#335,#245,#246);
#208=AXIS2_PLACEMENT_3D('',#336,#247,#248);
#209=AXIS2_PLACEMENT_3D('',#337,#249,#250);
#210=AXIS2_PLACEMENT_3D('',#338,#251,#252);
#211=AXIS2_PLACEMENT_3D('',#341,#253,#254);
#212=AXIS2_PLACEMENT_3D('',#342,#255,#256);
#213=AXIS2_PLACEMENT_3D('',#344,#258,#259);
#214=AXIS2_PLACEMENT_3D('',#347,#260,#261);
#215=AXIS2_PLACEMENT_3D('',#348,#262,#263);
#216=AXIS2_PLACEMENT_3D('',#350,#265,#266);
#217=AXIS2_PLACEMENT_3D('',#353,#267,#268);
#218=AXIS2_PLACEMENT_3D('',#354,#269,#270);
#219=AXIS2_PLACEMENT_3D('',#355,#271,#272);
#220=AXIS2_PLACEMENT_3D('',#359,#274,#275);
#221=AXIS2_PLACEMENT_3D('',#360,#276,#277);
#222=AXIS2_PLACEMENT_3D('',#361,#278,#279);
#223=AXIS2_PLACEMENT_3D('',#364,#280,#281);
#224=AXIS2_PLACEMENT_3D('',#365,#282,#283);
#225=AXIS2_PLACEMENT_3D('',#366,#284,#285);
#226=AXIS2_PLACEMENT_3D('',#370,#287,#288);
#227=AXIS2_PLACEMENT_3D('',#371,#289,#290);
#228=AXIS2_PLACEMENT_3D('',#372,#291,#292);
#229=DIRECTION('axis',(0.,0.,1.));
#230=DIRECTION('refdir',(1.,0.,0.));
#231=DIRECTION('center_axis',(-9.43689570931389E-15,1.,0.));
#232=DIRECTION('ref_axis',(0.,0.,1.));
#233=DIRECTION('center_axis',(-9.43689570931389E-15,1.,0.));
#234=DIRECTION('ref_axis',(1.,9.43689570931389E-15,0.));
#235=DIRECTION('center_axis',(-9.43689570931389E-15,1.,0.));
#236=DIRECTION('ref_axis',(1.,9.43689570931389E-15,0.));
#237=DIRECTION('center_axis',(-1.,-9.43689570931389E-15,1.22464679914735E-16));
#238=DIRECTION('ref_axis',(-1.22464679914735E-16,0.,-1.));
#239=DIRECTION('center_axis',(-9.43689570931389E-15,1.,0.));
#240=DIRECTION('ref_axis',(1.,9.43689570931389E-15,0.));
#241=DIRECTION('center_axis',(-9.43689570931389E-15,1.,0.));
#242=DIRECTION('ref_axis',(1.,9.43689570931389E-15,0.));
#243=DIRECTION('center_axis',(-9.43689570931389E-15,1.,0.));
#244=DIRECTION('ref_axis',(1.,9.43689570931389E-15,0.));
#245=DIRECTION('center_axis',(-9.43689570931389E-15,1.,0.));
#246=DIRECTION('ref_axis',(1.,9.43689570931389E-15,0.));
#247=DIRECTION('center_axis',(-1.,-9.43689570931389E-15,1.22464679914735E-16));
#248=DIRECTION('ref_axis',(-1.22464679914735E-16,0.,-1.));
#249=DIRECTION('center_axis',(-9.43689570931389E-15,1.,0.));
#250=DIRECTION('ref_axis',(1.,9.43689570931389E-15,0.));
#251=DIRECTION('center_axis',(9.43689570931389E-15,-1.,0.));
#252=DIRECTION('ref_axis',(-1.,-9.39988512947166E-15,0.));
#253=DIRECTION('center_axis',(-9.43689570931389E-15,1.,0.));
#254=DIRECTION('ref_axis',(1.,9.43689570931389E-15,0.));
#255=DIRECTION('center_axis',(-9.43689570931389E-15,1.,0.));
#256=DIRECTION('ref_axis',(1.,9.43689570931389E-15,0.));
#257=DIRECTION('',(0.675899229889928,-0.736994050881146,-8.27737828430853E-17));
#258=DIRECTION('center_axis',(-9.43689570931389E-15,1.,0.));
#259=DIRECTION('ref_axis',(-1.,-9.39988512947166E-15,0.));
#260=DIRECTION('center_axis',(-9.43689570931389E-15,1.,0.));
#261=DIRECTION('ref_axis',(1.,9.43689570931389E-15,0.));
#262=DIRECTION('center_axis',(-9.43689570931389E-15,1.,0.));
#263=DIRECTION('ref_axis',(1.,9.43689570931389E-15,0.));
#264=DIRECTION('',(9.43689570931389E-15,-1.,0.));
#265=DIRECTION('center_axis',(-9.43689570931389E-15,1.,0.));
#266=DIRECTION('ref_axis',(0.,0.,1.));
#267=DIRECTION('center_axis',(-9.43689570931389E-15,1.,0.));
#268=DIRECTION('ref_axis',(1.,9.43689570931389E-15,0.));
#269=DIRECTION('center_axis',(-9.43689570931389E-15,1.,0.));
#270=DIRECTION('ref_axis',(1.,9.43689570931389E-15,0.));
#271=DIRECTION('center_axis',(-9.43689570931389E-15,1.,0.));
#272=DIRECTION('ref_axis',(-1.,-9.39988512947166E-15,0.));
#273=DIRECTION('',(9.43689570931389E-15,-1.,0.));
#274=DIRECTION('center_axis',(-9.43689570931389E-15,1.,0.));
#275=DIRECTION('ref_axis',(1.,9.43689570931389E-15,0.));
#276=DIRECTION('center_axis',(-9.43689570931389E-15,1.,0.));
#277=DIRECTION('ref_axis',(1.,9.43689570931389E-15,0.));
#278=DIRECTION('center_axis',(-9.43689570931389E-15,1.,0.));
#279=DIRECTION('ref_axis',(0.,0.,1.));
#280=DIRECTION('center_axis',(-9.43689570931389E-15,1.,0.));
#281=DIRECTION('ref_axis',(1.,9.43689570931389E-15,0.));
#282=DIRECTION('center_axis',(-9.43689570931389E-15,1.,0.));
#283=DIRECTION('ref_axis',(1.,9.43689570931389E-15,0.));
#284=DIRECTION('center_axis',(-9.43689570931389E-15,1.,0.));
#285=DIRECTION('ref_axis',(-1.,-9.39988512947166E-15,0.));
#286=DIRECTION('',(9.43689570931389E-15,-1.,0.));
#287=DIRECTION('center_axis',(-9.43689570931389E-15,1.,0.));
#288=DIRECTION('ref_axis',(1.,9.43689570931389E-15,0.));
#289=DIRECTION('center_axis',(-9.43689570931389E-15,1.,0.));
#290=DIRECTION('ref_axis',(1.,9.43689570931389E-15,0.));
#291=DIRECTION('center_axis',(9.43689570931389E-15,-1.,0.));
#292=DIRECTION('ref_axis',(0.,0.,-1.));
#293=CARTESIAN_POINT('',(0.,0.,0.));
#294=CARTESIAN_POINT('Origin',(-2.83106871279878E-15,0.300000000000488,
0.));
#295=CARTESIAN_POINT('',(-50.4810286747568,0.404989923157241,0.));
#296=CARTESIAN_POINT('',(-1.00039906865831E-14,0.404989923157717,-50.4810286747568));
#297=CARTESIAN_POINT('Origin',(-3.82184766816242E-15,0.404989923157717,
0.));
#298=CARTESIAN_POINT('Origin',(-3.82184766816242E-15,0.404989923157717,
0.));
#299=CARTESIAN_POINT('',(-6.14772693172424E-15,4.77048955893622E-13,-50.2000000000002));
#300=CARTESIAN_POINT('Origin',(-8.97879564451852E-15,0.300000000000488,
-50.2000000000002));
#301=CARTESIAN_POINT('',(-50.2000000000002,3.33066907387547E-15,0.));
#302=CARTESIAN_POINT('Origin',(-4.50248524630721E-27,4.77062833681435E-13,
0.));
#303=CARTESIAN_POINT('Origin',(-4.50248524630721E-27,4.77062833681435E-13,
0.));
#304=CARTESIAN_POINT('Ctrl Pts',(-3.82184766816237E-15,0.404989923157716,
-50.4810286747568));
#305=CARTESIAN_POINT('Ctrl Pts',(-50.4810286747568,0.40498992315724,-50.4810286747568));
#306=CARTESIAN_POINT('Ctrl Pts',(-50.4810286747568,0.404989923157241,-1.92515957240948E-29));
#307=CARTESIAN_POINT('Ctrl Pts',(-50.4810286747568,0.404989923157241,50.4810286747568));
#308=CARTESIAN_POINT('Ctrl Pts',(-3.82184766816242E-15,0.404989923157718,
50.4810286747568));
#309=CARTESIAN_POINT('Ctrl Pts',(50.4810286747568,0.404989923158194,50.4810286747568));
#310=CARTESIAN_POINT('Ctrl Pts',(50.4810286747568,0.404989923158193,1.92515957240948E-29));
#311=CARTESIAN_POINT('Ctrl Pts',(50.4810286747568,0.404989923158193,-50.4810286747568));
#312=CARTESIAN_POINT('Ctrl Pts',(-3.82184766816237E-15,0.404989923157716,
-50.4810286747568));
#313=CARTESIAN_POINT('Ctrl Pts',(-5.36701508582839E-15,0.568726756250083,
-50.3600403408797));
#314=CARTESIAN_POINT('Ctrl Pts',(-50.3600403408797,0.568726756249607,-50.3600403408796));
#315=CARTESIAN_POINT('Ctrl Pts',(-50.3600403408797,0.568726756249607,-9.83765015593004E-30));
#316=CARTESIAN_POINT('Ctrl Pts',(-50.3600403408797,0.568726756249606,50.3600403408796));
#317=CARTESIAN_POINT('Ctrl Pts',(-5.36701508582839E-15,0.568726756250081,
50.3600403408797));
#318=CARTESIAN_POINT('Ctrl Pts',(50.3600403408796,0.568726756250557,50.3600403408796));
#319=CARTESIAN_POINT('Ctrl Pts',(50.3600403408796,0.568726756250557,9.83765015593004E-30));
#320=CARTESIAN_POINT('Ctrl Pts',(50.3600403408796,0.568726756250558,-50.3600403408796));
#321=CARTESIAN_POINT('Ctrl Pts',(-5.36701508582839E-15,0.568726756250083,
-50.3600403408797));
#322=CARTESIAN_POINT('Ctrl Pts',(-6.89764169275794E-15,0.730922742523291,
-50.2369940508813));
#323=CARTESIAN_POINT('Ctrl Pts',(-50.2369940508813,0.730922742522817,-50.2369940508813));
#324=CARTESIAN_POINT('Ctrl Pts',(-50.2369940508813,0.730922742522816,-1.83810753892318E-29));
#325=CARTESIAN_POINT('Ctrl Pts',(-50.2369940508813,0.730922742522815,50.2369940508813));
#326=CARTESIAN_POINT('Ctrl Pts',(-6.89764169275797E-15,0.730922742523289,
50.2369940508813));
#327=CARTESIAN_POINT('Ctrl Pts',(50.2369940508813,0.730922742523763,50.2369940508813));
#328=CARTESIAN_POINT('Ctrl Pts',(50.2369940508813,0.730922742523764,1.83810753892318E-29));
#329=CARTESIAN_POINT('Ctrl Pts',(50.2369940508813,0.730922742523765,-50.2369940508813));
#330=CARTESIAN_POINT('Ctrl Pts',(-6.89764169275794E-15,0.730922742523291,
-50.2369940508813));
#331=CARTESIAN_POINT('',(-50.2369940508813,0.73092274252281,0.));
#332=CARTESIAN_POINT('',(50.2369940508813,0.730922742523752,-6.15225739631964E-15));
#333=CARTESIAN_POINT('Origin',(-6.89764169275792E-15,0.730922742523284,
0.));
#334=CARTESIAN_POINT('',(-1.30498990890775E-14,0.730922742523283,-50.2369940508813));
#335=CARTESIAN_POINT('Origin',(-6.89764169275792E-15,0.730922742523284,
0.));
#336=CARTESIAN_POINT('Origin',(1.7399934567959E-13,-18.7567737148587,-24.5488879963189));
#337=CARTESIAN_POINT('Origin',(-6.89764169275792E-15,0.730922742523284,
0.));
#338=CARTESIAN_POINT('Origin',(-8.27187448046173E-14,8.76546137126182,0.));
#339=CARTESIAN_POINT('',(-35.5000000000002,16.8,0.));
#340=CARTESIAN_POINT('',(35.4999999999999,16.8000000000007,-4.34749613697311E-15));
#341=CARTESIAN_POINT('Origin',(-1.58539847916477E-13,16.8000000000004,0.));
#342=CARTESIAN_POINT('Origin',(-1.58539847916477E-13,16.8000000000004,0.));
#343=CARTESIAN_POINT('',(42.8684970254406,8.76546137126223,-5.24987676664638E-15));
#344=CARTESIAN_POINT('Origin',(-1.92512672470007E-13,20.4000000000004,0.));
#345=CARTESIAN_POINT('',(-35.5000000000002,24.,0.));
#346=CARTESIAN_POINT('',(35.4999999999998,24.0000000000007,-4.34749613697311E-15));
#347=CARTESIAN_POINT('Origin',(-2.26485497023537E-13,24.0000000000003,0.));
#348=CARTESIAN_POINT('Origin',(-2.26485497023537E-13,24.0000000000003,0.));
#349=CARTESIAN_POINT('',(35.4999999999999,20.4000000000007,-4.34749613697311E-15));
#350=CARTESIAN_POINT('Origin',(-23.2500000000002,24.,0.));
#351=CARTESIAN_POINT('',(-23.2500000000002,24.,0.));
#352=CARTESIAN_POINT('',(23.2499999999998,24.0000000000004,-2.8473038080176E-15));
#353=CARTESIAN_POINT('Origin',(-2.26485497023535E-13,24.0000000000002,0.));
#354=CARTESIAN_POINT('Origin',(-2.26485497023535E-13,24.0000000000002,0.));
#355=CARTESIAN_POINT('Origin',(-1.95815585968265E-13,20.7500000000002,0.));
#356=CARTESIAN_POINT('',(23.2499999999999,17.5000000000005,-2.8473038080176E-15));
#357=CARTESIAN_POINT('',(23.2499999999998,20.7500000000004,-2.8473038080176E-15));
#358=CARTESIAN_POINT('',(-23.2500000000002,17.5,0.));
#359=CARTESIAN_POINT('Origin',(-1.65145674912996E-13,17.5000000000003,0.));
#360=CARTESIAN_POINT('Origin',(-1.65145674912996E-13,17.5000000000003,0.));
#361=CARTESIAN_POINT('Origin',(-7.50000000000023,17.5,0.));
#362=CARTESIAN_POINT('',(-7.50000000000023,17.5,0.));
#363=CARTESIAN_POINT('',(7.49999999999999,17.5000000000002,-9.18485099360534E-16));
#364=CARTESIAN_POINT('Origin',(-1.65145674912994E-13,17.5000000000001,0.));
#365=CARTESIAN_POINT('Origin',(-1.65145674912994E-13,17.5000000000001,0.));
#366=CARTESIAN_POINT('Origin',(-8.25728374564973E-14,8.75000000000008,0.));
#367=CARTESIAN_POINT('',(7.50000000000015,1.3988810110277E-13,-9.18485099360534E-16));
#368=CARTESIAN_POINT('',(7.50000000000007,8.75000000000015,-9.18485099360534E-16));
#369=CARTESIAN_POINT('',(-7.50000000000023,0.,0.));
#370=CARTESIAN_POINT('Origin',(-6.68405542779268E-28,7.07767178198564E-14,
0.));
#371=CARTESIAN_POINT('Origin',(-6.68405542779268E-28,7.07767178198564E-14,
0.));
#372=CARTESIAN_POINT('Origin',(-50.2000000000002,3.33066907387547E-15,0.));
#373=UNCERTAINTY_MEASURE_WITH_UNIT(LENGTH_MEASURE(0.01),#377,
'DISTANCE_ACCURACY_VALUE',
'Maximum model space distance between geometric entities at asserted c
onnectivities');
#374=UNCERTAINTY_MEASURE_WITH_UNIT(LENGTH_MEASURE(0.01),#377,
'DISTANCE_ACCURACY_VALUE',
'Maximum model space distance between geometric entities at asserted c
onnectivities');
#375=(
GEOMETRIC_REPRESENTATION_CONTEXT(3)
GLOBAL_UNCERTAINTY_ASSIGNED_CONTEXT((#373))
GLOBAL_UNIT_ASSIGNED_CONTEXT((#377,#379,#380))
REPRESENTATION_CONTEXT('','3D')
);
#376=(
GEOMETRIC_REPRESENTATION_CONTEXT(3)
GLOBAL_UNCERTAINTY_ASSIGNED_CONTEXT((#374))
GLOBAL_UNIT_ASSIGNED_CONTEXT((#377,#379,#380))
REPRESENTATION_CONTEXT('','3D')
);
#377=(
LENGTH_UNIT()
NAMED_UNIT(*)
SI_UNIT(.MILLI.,.METRE.)
);
#378=(
LENGTH_UNIT()
NAMED_UNIT(*)
SI_UNIT(.CENTI.,.METRE.)
);
#379=(
NAMED_UNIT(*)
PLANE_ANGLE_UNIT()
SI_UNIT($,.RADIAN.)
);
#380=(
NAMED_UNIT(*)
SI_UNIT($,.STERADIAN.)
SOLID_ANGLE_UNIT()
);
#381=SHAPE_DEFINITION_REPRESENTATION(#382,#383);
#382=PRODUCT_DEFINITION_SHAPE('',$,#385);
#383=SHAPE_REPRESENTATION('',(#199),#375);
#384=DESIGN_CONTEXT('part definition',#389,'design');
#385=PRODUCT_DEFINITION('Pieza180','Pieza180',#386,#384);
#386=PRODUCT_DEFINITION_FORMATION('',$,#391);
#387=PRODUCT_RELATED_PRODUCT_CATEGORY('Pieza180','Pieza180',(#391));
#388=APPLICATION_PROTOCOL_DEFINITION('international standard',
'ap203_configuration_controlled_3d_design_of_mechanical_parts_and_asse
mblies_mim_lf',2004,#389);
#389=APPLICATION_CONTEXT(
'Configuration Controlled 3D Design of Mechanical Parts and Assemblies');
#390=MECHANICAL_CONTEXT('part definition',#389,'mechanical');
#391=PRODUCT('Pieza180','Pieza180',$,(#390));
#392=PRESENTATION_STYLE_ASSIGNMENT((#393));
#393=SURFACE_STYLE_USAGE(.BOTH.,#396);
#394=SURFACE_STYLE_RENDERING_WITH_PROPERTIES($,#400,(#395));
#395=SURFACE_STYLE_TRANSPARENT(0.);
#396=SURFACE_SIDE_STYLE('',(#397,#394));
#397=SURFACE_STYLE_FILL_AREA(#398);
#398=FILL_AREA_STYLE('',(#399));
#399=FILL_AREA_STYLE_COLOUR('',#400);
#400=COLOUR_RGB('',0.32156862745098,0.32156862745098,0.32156862745098);
ENDSEC;
END-ISO-10303-21;
