ISO-10303-21;
HEADER;
/* Generated by software containing ST-Developer
 * from STEP Tools, Inc. (www.steptools.com) 
 */

FILE_DESCRIPTION(
/* description */ (''),
/* implementation_level */ '2;1');

FILE_NAME(
/* name */ 'Z:\\14-ALMACEN-3D\\3D_vf20.stp',
/* time_stamp */ '2019-09-18T14:53:47+02:00',
/* author */ ('Asalcedo'),
/* organization */ (''),
/* preprocessor_version */ 'ST-DEVELOPER v17',
/* originating_system */ 'Autodesk Inventor 2019',
/* authorisation */ '');

FILE_SCHEMA (('AUTOMOTIVE_DESIGN { 1 0 10303 214 3 1 1 }'));
ENDSEC;

DATA;
#10=MECHANICAL_DESIGN_GEOMETRIC_PRESENTATION_REPRESENTATION('',(#13),#622);
#11=SHAPE_REPRESENTATION_RELATIONSHIP('SRR','None',#629,#12);
#12=ADVANCED_BREP_SHAPE_REPRESENTATION('',(#14),#621);
#13=STYLED_ITEM('',(#639),#14);
#14=MANIFOLD_SOLID_BREP('S\X\F3lido2',#317);
#15=FACE_BOUND('',#59,.T.);
#16=CONICAL_SURFACE('',#351,8.85100721774488,1.01124191920078);
#17=CONICAL_SURFACE('',#360,8.74894894668489,0.815385161383565);
#18=CONICAL_SURFACE('',#369,8.74999999999989,0.798680133783248);
#19=CONICAL_SURFACE('',#378,8.75086107907725,0.813736947298417);
#20=CONICAL_SURFACE('',#387,8.36826280139121,0.805172833411211);
#21=TOROIDAL_SURFACE('',#346,9.71814606994667,0.3);
#22=TOROIDAL_SURFACE('',#355,8.49789789337047,0.999999999999998);
#23=TOROIDAL_SURFACE('',#364,8.99999999999955,1.);
#24=TOROIDAL_SURFACE('',#373,8.49999999999999,1.00000000000001);
#25=TOROIDAL_SURFACE('',#382,9.00172215815474,1.);
#26=PLANE('',#342);
#27=PLANE('',#343);
#28=PLANE('',#393);
#29=FACE_OUTER_BOUND('',#44,.T.);
#30=FACE_OUTER_BOUND('',#45,.T.);
#31=FACE_OUTER_BOUND('',#46,.T.);
#32=FACE_OUTER_BOUND('',#47,.T.);
#33=FACE_OUTER_BOUND('',#48,.T.);
#34=FACE_OUTER_BOUND('',#49,.T.);
#35=FACE_OUTER_BOUND('',#50,.T.);
#36=FACE_OUTER_BOUND('',#51,.T.);
#37=FACE_OUTER_BOUND('',#52,.T.);
#38=FACE_OUTER_BOUND('',#53,.T.);
#39=FACE_OUTER_BOUND('',#54,.T.);
#40=FACE_OUTER_BOUND('',#55,.T.);
#41=FACE_OUTER_BOUND('',#56,.T.);
#42=FACE_OUTER_BOUND('',#57,.T.);
#43=FACE_OUTER_BOUND('',#58,.T.);
#44=EDGE_LOOP('',(#202,#203,#204,#205,#206,#207));
#45=EDGE_LOOP('',(#208,#209));
#46=EDGE_LOOP('',(#210,#211));
#47=EDGE_LOOP('',(#212,#213,#214,#215,#216,#217,#218));
#48=EDGE_LOOP('',(#219,#220,#221,#222,#223,#224,#225,#226));
#49=EDGE_LOOP('',(#227,#228,#229,#230,#231,#232,#233,#234));
#50=EDGE_LOOP('',(#235,#236,#237,#238,#239,#240,#241,#242));
#51=EDGE_LOOP('',(#243,#244,#245,#246,#247,#248,#249,#250));
#52=EDGE_LOOP('',(#251,#252,#253,#254,#255,#256,#257,#258));
#53=EDGE_LOOP('',(#259,#260,#261,#262,#263,#264,#265,#266));
#54=EDGE_LOOP('',(#267,#268,#269,#270,#271,#272,#273,#274));
#55=EDGE_LOOP('',(#275,#276,#277,#278,#279,#280,#281,#282));
#56=EDGE_LOOP('',(#283,#284,#285,#286,#287,#288,#289));
#57=EDGE_LOOP('',(#290,#291,#292,#293,#294,#295));
#58=EDGE_LOOP('',(#296,#297));
#59=EDGE_LOOP('',(#298,#299));
#60=LINE('',#524,#67);
#61=LINE('',#544,#68);
#62=LINE('',#565,#69);
#63=LINE('',#576,#70);
#64=LINE('',#597,#71);
#65=LINE('',#608,#72);
#66=LINE('',#617,#73);
#67=VECTOR('',#402,2.5);
#68=VECTOR('',#427,8.85100721774488);
#69=VECTOR('',#452,8.74894894668489);
#70=VECTOR('',#465,8.74999999999989);
#71=VECTOR('',#490,8.75086107907725);
#72=VECTOR('',#503,8.36826280139121);
#73=VECTOR('',#514,7.);
#74=CIRCLE('',#338,2.5);
#75=CIRCLE('',#339,2.5);
#76=CIRCLE('',#340,2.5);
#77=CIRCLE('',#341,2.5);
#78=CIRCLE('',#344,9.71814606994667);
#79=CIRCLE('',#345,9.71814606994667);
#80=CIRCLE('',#347,9.91122332330588);
#81=CIRCLE('',#348,9.91122332330588);
#82=CIRCLE('',#349,0.3);
#83=CIRCLE('',#350,9.91122332330588);
#84=CIRCLE('',#352,7.79079111218389);
#85=CIRCLE('',#353,7.79079111218389);
#86=CIRCLE('',#354,7.79079111218389);
#87=CIRCLE('',#356,7.7052739042656);
#88=CIRCLE('',#357,7.7052739042656);
#89=CIRCLE('',#358,0.999999999999998);
#90=CIRCLE('',#359,7.7052739042656);
#91=CIRCLE('',#361,9.79262398910418);
#92=CIRCLE('',#362,9.79262398910418);
#93=CIRCLE('',#363,9.79262398910418);
#94=CIRCLE('',#365,9.79262398910442);
#95=CIRCLE('',#366,9.79262398910442);
#96=CIRCLE('',#367,1.);
#97=CIRCLE('',#368,9.79262398910442);
#98=CIRCLE('',#370,7.70737601089537);
#99=CIRCLE('',#371,7.70737601089537);
#100=CIRCLE('',#372,7.70737601089537);
#101=CIRCLE('',#374,7.70737601089514);
#102=CIRCLE('',#375,7.70737601089514);
#103=CIRCLE('',#376,1.00000000000001);
#104=CIRCLE('',#377,7.70737601089514);
#105=CIRCLE('',#379,9.79434614725937);
#106=CIRCLE('',#380,9.79434614725937);
#107=CIRCLE('',#381,9.79434614725937);
#108=CIRCLE('',#383,9.73652560278243);
#109=CIRCLE('',#384,9.73652560278243);
#110=CIRCLE('',#385,1.);
#111=CIRCLE('',#386,9.73652560278243);
#112=CIRCLE('',#388,7.);
#113=CIRCLE('',#389,7.);
#114=CIRCLE('',#391,7.);
#115=CIRCLE('',#392,7.);
#116=VERTEX_POINT('',#519);
#117=VERTEX_POINT('',#520);
#118=VERTEX_POINT('',#523);
#119=VERTEX_POINT('',#525);
#120=VERTEX_POINT('',#530);
#121=VERTEX_POINT('',#531);
#122=VERTEX_POINT('',#535);
#123=VERTEX_POINT('',#536);
#124=VERTEX_POINT('',#538);
#125=VERTEX_POINT('',#543);
#126=VERTEX_POINT('',#545);
#127=VERTEX_POINT('',#547);
#128=VERTEX_POINT('',#551);
#129=VERTEX_POINT('',#552);
#130=VERTEX_POINT('',#554);
#131=VERTEX_POINT('',#559);
#132=VERTEX_POINT('',#560);
#133=VERTEX_POINT('',#562);
#134=VERTEX_POINT('',#567);
#135=VERTEX_POINT('',#568);
#136=VERTEX_POINT('',#570);
#137=VERTEX_POINT('',#575);
#138=VERTEX_POINT('',#577);
#139=VERTEX_POINT('',#579);
#140=VERTEX_POINT('',#583);
#141=VERTEX_POINT('',#584);
#142=VERTEX_POINT('',#586);
#143=VERTEX_POINT('',#591);
#144=VERTEX_POINT('',#592);
#145=VERTEX_POINT('',#594);
#146=VERTEX_POINT('',#599);
#147=VERTEX_POINT('',#600);
#148=VERTEX_POINT('',#602);
#149=VERTEX_POINT('',#607);
#150=VERTEX_POINT('',#609);
#151=VERTEX_POINT('',#613);
#152=VERTEX_POINT('',#614);
#153=EDGE_CURVE('',#116,#117,#74,.T.);
#154=EDGE_CURVE('',#117,#116,#75,.T.);
#155=EDGE_CURVE('',#117,#118,#60,.T.);
#156=EDGE_CURVE('',#118,#119,#76,.T.);
#157=EDGE_CURVE('',#119,#118,#77,.T.);
#158=EDGE_CURVE('',#120,#121,#78,.T.);
#159=EDGE_CURVE('',#121,#120,#79,.T.);
#160=EDGE_CURVE('',#122,#123,#80,.T.);
#161=EDGE_CURVE('',#124,#122,#81,.T.);
#162=EDGE_CURVE('',#124,#121,#82,.T.);
#163=EDGE_CURVE('',#123,#124,#83,.T.);
#164=EDGE_CURVE('',#123,#125,#61,.T.);
#165=EDGE_CURVE('',#126,#125,#84,.T.);
#166=EDGE_CURVE('',#127,#126,#85,.T.);
#167=EDGE_CURVE('',#125,#127,#86,.T.);
#168=EDGE_CURVE('',#128,#129,#87,.T.);
#169=EDGE_CURVE('',#130,#128,#88,.T.);
#170=EDGE_CURVE('',#130,#127,#89,.T.);
#171=EDGE_CURVE('',#129,#130,#90,.T.);
#172=EDGE_CURVE('',#131,#132,#91,.T.);
#173=EDGE_CURVE('',#133,#131,#92,.T.);
#174=EDGE_CURVE('',#132,#133,#93,.T.);
#175=EDGE_CURVE('',#132,#129,#62,.T.);
#176=EDGE_CURVE('',#134,#135,#94,.T.);
#177=EDGE_CURVE('',#136,#134,#95,.T.);
#178=EDGE_CURVE('',#136,#133,#96,.T.);
#179=EDGE_CURVE('',#135,#136,#97,.T.);
#180=EDGE_CURVE('',#135,#137,#63,.T.);
#181=EDGE_CURVE('',#138,#137,#98,.T.);
#182=EDGE_CURVE('',#139,#138,#99,.T.);
#183=EDGE_CURVE('',#137,#139,#100,.T.);
#184=EDGE_CURVE('',#140,#141,#101,.T.);
#185=EDGE_CURVE('',#142,#140,#102,.T.);
#186=EDGE_CURVE('',#142,#139,#103,.T.);
#187=EDGE_CURVE('',#141,#142,#104,.T.);
#188=EDGE_CURVE('',#143,#144,#105,.T.);
#189=EDGE_CURVE('',#145,#143,#106,.T.);
#190=EDGE_CURVE('',#144,#145,#107,.T.);
#191=EDGE_CURVE('',#144,#141,#64,.T.);
#192=EDGE_CURVE('',#146,#147,#108,.T.);
#193=EDGE_CURVE('',#148,#146,#109,.T.);
#194=EDGE_CURVE('',#148,#145,#110,.T.);
#195=EDGE_CURVE('',#147,#148,#111,.T.);
#196=EDGE_CURVE('',#147,#149,#65,.T.);
#197=EDGE_CURVE('',#150,#149,#112,.T.);
#198=EDGE_CURVE('',#149,#150,#113,.T.);
#199=EDGE_CURVE('',#151,#152,#114,.T.);
#200=EDGE_CURVE('',#152,#151,#115,.T.);
#201=EDGE_CURVE('',#152,#149,#66,.T.);
#202=ORIENTED_EDGE('',*,*,#153,.F.);
#203=ORIENTED_EDGE('',*,*,#154,.F.);
#204=ORIENTED_EDGE('',*,*,#155,.T.);
#205=ORIENTED_EDGE('',*,*,#156,.T.);
#206=ORIENTED_EDGE('',*,*,#157,.T.);
#207=ORIENTED_EDGE('',*,*,#155,.F.);
#208=ORIENTED_EDGE('',*,*,#157,.F.);
#209=ORIENTED_EDGE('',*,*,#156,.F.);
#210=ORIENTED_EDGE('',*,*,#158,.F.);
#211=ORIENTED_EDGE('',*,*,#159,.F.);
#212=ORIENTED_EDGE('',*,*,#160,.F.);
#213=ORIENTED_EDGE('',*,*,#161,.F.);
#214=ORIENTED_EDGE('',*,*,#162,.T.);
#215=ORIENTED_EDGE('',*,*,#159,.T.);
#216=ORIENTED_EDGE('',*,*,#158,.T.);
#217=ORIENTED_EDGE('',*,*,#162,.F.);
#218=ORIENTED_EDGE('',*,*,#163,.F.);
#219=ORIENTED_EDGE('',*,*,#160,.T.);
#220=ORIENTED_EDGE('',*,*,#164,.T.);
#221=ORIENTED_EDGE('',*,*,#165,.F.);
#222=ORIENTED_EDGE('',*,*,#166,.F.);
#223=ORIENTED_EDGE('',*,*,#167,.F.);
#224=ORIENTED_EDGE('',*,*,#164,.F.);
#225=ORIENTED_EDGE('',*,*,#163,.T.);
#226=ORIENTED_EDGE('',*,*,#161,.T.);
#227=ORIENTED_EDGE('',*,*,#168,.F.);
#228=ORIENTED_EDGE('',*,*,#169,.F.);
#229=ORIENTED_EDGE('',*,*,#170,.T.);
#230=ORIENTED_EDGE('',*,*,#166,.T.);
#231=ORIENTED_EDGE('',*,*,#165,.T.);
#232=ORIENTED_EDGE('',*,*,#167,.T.);
#233=ORIENTED_EDGE('',*,*,#170,.F.);
#234=ORIENTED_EDGE('',*,*,#171,.F.);
#235=ORIENTED_EDGE('',*,*,#172,.F.);
#236=ORIENTED_EDGE('',*,*,#173,.F.);
#237=ORIENTED_EDGE('',*,*,#174,.F.);
#238=ORIENTED_EDGE('',*,*,#175,.T.);
#239=ORIENTED_EDGE('',*,*,#171,.T.);
#240=ORIENTED_EDGE('',*,*,#169,.T.);
#241=ORIENTED_EDGE('',*,*,#168,.T.);
#242=ORIENTED_EDGE('',*,*,#175,.F.);
#243=ORIENTED_EDGE('',*,*,#176,.F.);
#244=ORIENTED_EDGE('',*,*,#177,.F.);
#245=ORIENTED_EDGE('',*,*,#178,.T.);
#246=ORIENTED_EDGE('',*,*,#173,.T.);
#247=ORIENTED_EDGE('',*,*,#172,.T.);
#248=ORIENTED_EDGE('',*,*,#174,.T.);
#249=ORIENTED_EDGE('',*,*,#178,.F.);
#250=ORIENTED_EDGE('',*,*,#179,.F.);
#251=ORIENTED_EDGE('',*,*,#176,.T.);
#252=ORIENTED_EDGE('',*,*,#180,.T.);
#253=ORIENTED_EDGE('',*,*,#181,.F.);
#254=ORIENTED_EDGE('',*,*,#182,.F.);
#255=ORIENTED_EDGE('',*,*,#183,.F.);
#256=ORIENTED_EDGE('',*,*,#180,.F.);
#257=ORIENTED_EDGE('',*,*,#179,.T.);
#258=ORIENTED_EDGE('',*,*,#177,.T.);
#259=ORIENTED_EDGE('',*,*,#184,.F.);
#260=ORIENTED_EDGE('',*,*,#185,.F.);
#261=ORIENTED_EDGE('',*,*,#186,.T.);
#262=ORIENTED_EDGE('',*,*,#182,.T.);
#263=ORIENTED_EDGE('',*,*,#181,.T.);
#264=ORIENTED_EDGE('',*,*,#183,.T.);
#265=ORIENTED_EDGE('',*,*,#186,.F.);
#266=ORIENTED_EDGE('',*,*,#187,.F.);
#267=ORIENTED_EDGE('',*,*,#188,.F.);
#268=ORIENTED_EDGE('',*,*,#189,.F.);
#269=ORIENTED_EDGE('',*,*,#190,.F.);
#270=ORIENTED_EDGE('',*,*,#191,.T.);
#271=ORIENTED_EDGE('',*,*,#187,.T.);
#272=ORIENTED_EDGE('',*,*,#185,.T.);
#273=ORIENTED_EDGE('',*,*,#184,.T.);
#274=ORIENTED_EDGE('',*,*,#191,.F.);
#275=ORIENTED_EDGE('',*,*,#192,.F.);
#276=ORIENTED_EDGE('',*,*,#193,.F.);
#277=ORIENTED_EDGE('',*,*,#194,.T.);
#278=ORIENTED_EDGE('',*,*,#189,.T.);
#279=ORIENTED_EDGE('',*,*,#188,.T.);
#280=ORIENTED_EDGE('',*,*,#190,.T.);
#281=ORIENTED_EDGE('',*,*,#194,.F.);
#282=ORIENTED_EDGE('',*,*,#195,.F.);
#283=ORIENTED_EDGE('',*,*,#192,.T.);
#284=ORIENTED_EDGE('',*,*,#196,.T.);
#285=ORIENTED_EDGE('',*,*,#197,.F.);
#286=ORIENTED_EDGE('',*,*,#198,.F.);
#287=ORIENTED_EDGE('',*,*,#196,.F.);
#288=ORIENTED_EDGE('',*,*,#195,.T.);
#289=ORIENTED_EDGE('',*,*,#193,.T.);
#290=ORIENTED_EDGE('',*,*,#199,.F.);
#291=ORIENTED_EDGE('',*,*,#200,.F.);
#292=ORIENTED_EDGE('',*,*,#201,.T.);
#293=ORIENTED_EDGE('',*,*,#198,.T.);
#294=ORIENTED_EDGE('',*,*,#197,.T.);
#295=ORIENTED_EDGE('',*,*,#201,.F.);
#296=ORIENTED_EDGE('',*,*,#199,.T.);
#297=ORIENTED_EDGE('',*,*,#200,.T.);
#298=ORIENTED_EDGE('',*,*,#153,.T.);
#299=ORIENTED_EDGE('',*,*,#154,.T.);
#300=CYLINDRICAL_SURFACE('',#337,2.5);
#301=CYLINDRICAL_SURFACE('',#390,7.);
#302=ADVANCED_FACE('',(#29),#300,.F.);
#303=ADVANCED_FACE('',(#30),#26,.F.);
#304=ADVANCED_FACE('',(#31),#27,.T.);
#305=ADVANCED_FACE('',(#32),#21,.T.);
#306=ADVANCED_FACE('',(#33),#16,.T.);
#307=ADVANCED_FACE('',(#34),#22,.F.);
#308=ADVANCED_FACE('',(#35),#17,.T.);
#309=ADVANCED_FACE('',(#36),#23,.T.);
#310=ADVANCED_FACE('',(#37),#18,.T.);
#311=ADVANCED_FACE('',(#38),#24,.F.);
#312=ADVANCED_FACE('',(#39),#19,.T.);
#313=ADVANCED_FACE('',(#40),#25,.T.);
#314=ADVANCED_FACE('',(#41),#20,.T.);
#315=ADVANCED_FACE('',(#42),#301,.T.);
#316=ADVANCED_FACE('',(#43,#15),#28,.T.);
#317=CLOSED_SHELL('',(#302,#303,#304,#305,#306,#307,#308,#309,#310,#311,
#312,#313,#314,#315,#316));
#318=DERIVED_UNIT_ELEMENT(#320,1.);
#319=DERIVED_UNIT_ELEMENT(#624,3.);
#320=(
MASS_UNIT()
NAMED_UNIT(*)
SI_UNIT($,.GRAM.)
);
#321=DERIVED_UNIT((#318,#319));
#322=MEASURE_REPRESENTATION_ITEM('density measure',
POSITIVE_RATIO_MEASURE(1.),#321);
#323=PROPERTY_DEFINITION_REPRESENTATION(#328,#325);
#324=PROPERTY_DEFINITION_REPRESENTATION(#329,#326);
#325=REPRESENTATION('material name',(#327),#621);
#326=REPRESENTATION('density',(#322),#621);
#327=DESCRIPTIVE_REPRESENTATION_ITEM('Gen\X\E9rico','Gen\X\E9rico');
#328=PROPERTY_DEFINITION('material property','material name',#631);
#329=PROPERTY_DEFINITION('material property','density of part',#631);
#330=DATE_TIME_ROLE('creation_date');
#331=APPLIED_DATE_AND_TIME_ASSIGNMENT(#332,#330,(#631));
#332=DATE_AND_TIME(#333,#334);
#333=CALENDAR_DATE(2019,18,9);
#334=LOCAL_TIME(14,53,6.,#335);
#335=COORDINATED_UNIVERSAL_TIME_OFFSET(0,0,.BEHIND.);
#336=AXIS2_PLACEMENT_3D('placement',#517,#394,#395);
#337=AXIS2_PLACEMENT_3D('',#518,#396,#397);
#338=AXIS2_PLACEMENT_3D('',#521,#398,#399);
#339=AXIS2_PLACEMENT_3D('',#522,#400,#401);
#340=AXIS2_PLACEMENT_3D('',#526,#403,#404);
#341=AXIS2_PLACEMENT_3D('',#527,#405,#406);
#342=AXIS2_PLACEMENT_3D('',#528,#407,#408);
#343=AXIS2_PLACEMENT_3D('',#529,#409,#410);
#344=AXIS2_PLACEMENT_3D('',#532,#411,#412);
#345=AXIS2_PLACEMENT_3D('',#533,#413,#414);
#346=AXIS2_PLACEMENT_3D('',#534,#415,#416);
#347=AXIS2_PLACEMENT_3D('',#537,#417,#418);
#348=AXIS2_PLACEMENT_3D('',#539,#419,#420);
#349=AXIS2_PLACEMENT_3D('',#540,#421,#422);
#350=AXIS2_PLACEMENT_3D('',#541,#423,#424);
#351=AXIS2_PLACEMENT_3D('',#542,#425,#426);
#352=AXIS2_PLACEMENT_3D('',#546,#428,#429);
#353=AXIS2_PLACEMENT_3D('',#548,#430,#431);
#354=AXIS2_PLACEMENT_3D('',#549,#432,#433);
#355=AXIS2_PLACEMENT_3D('',#550,#434,#435);
#356=AXIS2_PLACEMENT_3D('',#553,#436,#437);
#357=AXIS2_PLACEMENT_3D('',#555,#438,#439);
#358=AXIS2_PLACEMENT_3D('',#556,#440,#441);
#359=AXIS2_PLACEMENT_3D('',#557,#442,#443);
#360=AXIS2_PLACEMENT_3D('',#558,#444,#445);
#361=AXIS2_PLACEMENT_3D('',#561,#446,#447);
#362=AXIS2_PLACEMENT_3D('',#563,#448,#449);
#363=AXIS2_PLACEMENT_3D('',#564,#450,#451);
#364=AXIS2_PLACEMENT_3D('',#566,#453,#454);
#365=AXIS2_PLACEMENT_3D('',#569,#455,#456);
#366=AXIS2_PLACEMENT_3D('',#571,#457,#458);
#367=AXIS2_PLACEMENT_3D('',#572,#459,#460);
#368=AXIS2_PLACEMENT_3D('',#573,#461,#462);
#369=AXIS2_PLACEMENT_3D('',#574,#463,#464);
#370=AXIS2_PLACEMENT_3D('',#578,#466,#467);
#371=AXIS2_PLACEMENT_3D('',#580,#468,#469);
#372=AXIS2_PLACEMENT_3D('',#581,#470,#471);
#373=AXIS2_PLACEMENT_3D('',#582,#472,#473);
#374=AXIS2_PLACEMENT_3D('',#585,#474,#475);
#375=AXIS2_PLACEMENT_3D('',#587,#476,#477);
#376=AXIS2_PLACEMENT_3D('',#588,#478,#479);
#377=AXIS2_PLACEMENT_3D('',#589,#480,#481);
#378=AXIS2_PLACEMENT_3D('',#590,#482,#483);
#379=AXIS2_PLACEMENT_3D('',#593,#484,#485);
#380=AXIS2_PLACEMENT_3D('',#595,#486,#487);
#381=AXIS2_PLACEMENT_3D('',#596,#488,#489);
#382=AXIS2_PLACEMENT_3D('',#598,#491,#492);
#383=AXIS2_PLACEMENT_3D('',#601,#493,#494);
#384=AXIS2_PLACEMENT_3D('',#603,#495,#496);
#385=AXIS2_PLACEMENT_3D('',#604,#497,#498);
#386=AXIS2_PLACEMENT_3D('',#605,#499,#500);
#387=AXIS2_PLACEMENT_3D('',#606,#501,#502);
#388=AXIS2_PLACEMENT_3D('',#610,#504,#505);
#389=AXIS2_PLACEMENT_3D('',#611,#506,#507);
#390=AXIS2_PLACEMENT_3D('',#612,#508,#509);
#391=AXIS2_PLACEMENT_3D('',#615,#510,#511);
#392=AXIS2_PLACEMENT_3D('',#616,#512,#513);
#393=AXIS2_PLACEMENT_3D('',#618,#515,#516);
#394=DIRECTION('axis',(0.,0.,1.));
#395=DIRECTION('refdir',(1.,0.,0.));
#396=DIRECTION('center_axis',(0.,-1.,0.));
#397=DIRECTION('ref_axis',(-1.,0.,0.));
#398=DIRECTION('center_axis',(0.,-1.,0.));
#399=DIRECTION('ref_axis',(-1.,0.,0.));
#400=DIRECTION('center_axis',(0.,-1.,0.));
#401=DIRECTION('ref_axis',(-1.,0.,0.));
#402=DIRECTION('',(0.,-1.,0.));
#403=DIRECTION('center_axis',(0.,-1.,0.));
#404=DIRECTION('ref_axis',(1.,0.,0.));
#405=DIRECTION('center_axis',(0.,-1.,0.));
#406=DIRECTION('ref_axis',(1.,0.,0.));
#407=DIRECTION('center_axis',(0.,-1.,0.));
#408=DIRECTION('ref_axis',(0.,0.,-1.));
#409=DIRECTION('center_axis',(0.,-1.,0.));
#410=DIRECTION('ref_axis',(0.,0.,-1.));
#411=DIRECTION('center_axis',(0.,1.,0.));
#412=DIRECTION('ref_axis',(-1.,0.,0.));
#413=DIRECTION('center_axis',(0.,1.,0.));
#414=DIRECTION('ref_axis',(-1.,0.,0.));
#415=DIRECTION('center_axis',(0.,1.,0.));
#416=DIRECTION('ref_axis',(0.,0.,1.));
#417=DIRECTION('center_axis',(0.,1.,0.));
#418=DIRECTION('ref_axis',(-1.,0.,0.));
#419=DIRECTION('center_axis',(0.,1.,0.));
#420=DIRECTION('ref_axis',(-1.,0.,0.));
#421=DIRECTION('center_axis',(-1.,0.,1.22464679914735E-16));
#422=DIRECTION('ref_axis',(-1.22464679914735E-16,0.,-1.));
#423=DIRECTION('center_axis',(0.,1.,0.));
#424=DIRECTION('ref_axis',(-1.,0.,0.));
#425=DIRECTION('center_axis',(0.,-1.,0.));
#426=DIRECTION('ref_axis',(-1.,0.,0.));
#427=DIRECTION('',(-0.847491719429139,0.530808614755866,-1.03787802150278E-16));
#428=DIRECTION('center_axis',(0.,1.,0.));
#429=DIRECTION('ref_axis',(-1.,0.,0.));
#430=DIRECTION('center_axis',(0.,1.,0.));
#431=DIRECTION('ref_axis',(-1.,0.,0.));
#432=DIRECTION('center_axis',(0.,1.,0.));
#433=DIRECTION('ref_axis',(-1.,0.,0.));
#434=DIRECTION('center_axis',(1.11001888418879E-17,1.,-2.43237512518104E-16));
#435=DIRECTION('ref_axis',(0.,2.80539471893062E-16,1.));
#436=DIRECTION('center_axis',(0.,1.,0.));
#437=DIRECTION('ref_axis',(-1.,0.,0.));
#438=DIRECTION('center_axis',(0.,1.,0.));
#439=DIRECTION('ref_axis',(-1.,0.,0.));
#440=DIRECTION('center_axis',(1.,-1.11001888418879E-17,-1.22464679914735E-16));
#441=DIRECTION('ref_axis',(-1.22464679914735E-16,-2.33782893244218E-16,
-1.));
#442=DIRECTION('center_axis',(0.,1.,0.));
#443=DIRECTION('ref_axis',(-1.,0.,0.));
#444=DIRECTION('center_axis',(0.,1.,0.));
#445=DIRECTION('ref_axis',(-1.,0.,0.));
#446=DIRECTION('center_axis',(0.,1.,0.));
#447=DIRECTION('ref_axis',(-1.,0.,0.));
#448=DIRECTION('center_axis',(0.,1.,0.));
#449=DIRECTION('ref_axis',(-1.,0.,0.));
#450=DIRECTION('center_axis',(0.,1.,0.));
#451=DIRECTION('ref_axis',(-1.,0.,0.));
#452=DIRECTION('',(-0.727989714633599,-0.685588050791211,8.91530273838231E-17));
#453=DIRECTION('center_axis',(0.,1.,0.));
#454=DIRECTION('ref_axis',(0.,0.,1.));
#455=DIRECTION('center_axis',(0.,1.,0.));
#456=DIRECTION('ref_axis',(-1.,0.,0.));
#457=DIRECTION('center_axis',(0.,1.,0.));
#458=DIRECTION('ref_axis',(-1.,0.,0.));
#459=DIRECTION('center_axis',(-1.,0.,1.22464679914735E-16));
#460=DIRECTION('ref_axis',(-1.22464679914735E-16,0.,-1.));
#461=DIRECTION('center_axis',(0.,1.,0.));
#462=DIRECTION('ref_axis',(-1.,0.,0.));
#463=DIRECTION('center_axis',(0.,-1.,0.));
#464=DIRECTION('ref_axis',(-1.,0.,0.));
#465=DIRECTION('',(-0.716435906683995,0.697652916294257,-8.77380939914787E-17));
#466=DIRECTION('center_axis',(0.,1.,0.));
#467=DIRECTION('ref_axis',(-1.,0.,0.));
#468=DIRECTION('center_axis',(0.,1.,0.));
#469=DIRECTION('ref_axis',(-1.,0.,0.));
#470=DIRECTION('center_axis',(0.,1.,0.));
#471=DIRECTION('ref_axis',(-1.,0.,0.));
#472=DIRECTION('center_axis',(-3.20758446439148E-17,1.,-7.76640468324659E-16));
#473=DIRECTION('ref_axis',(0.,7.47939721852737E-16,1.));
#474=DIRECTION('center_axis',(0.,1.,0.));
#475=DIRECTION('ref_axis',(-1.,0.,0.));
#476=DIRECTION('center_axis',(0.,1.,0.));
#477=DIRECTION('ref_axis',(-1.,0.,0.));
#478=DIRECTION('center_axis',(1.,3.20758446439147E-17,-1.22464679914735E-16));
#479=DIRECTION('ref_axis',(-1.22464679914735E-16,-8.18059070776431E-16,
-1.));
#480=DIRECTION('center_axis',(0.,1.,0.));
#481=DIRECTION('ref_axis',(-1.,0.,0.));
#482=DIRECTION('center_axis',(0.,1.,0.));
#483=DIRECTION('ref_axis',(-1.,0.,0.));
#484=DIRECTION('center_axis',(0.,1.,0.));
#485=DIRECTION('ref_axis',(-1.,0.,0.));
#486=DIRECTION('center_axis',(0.,1.,0.));
#487=DIRECTION('ref_axis',(-1.,0.,0.));
#488=DIRECTION('center_axis',(0.,1.,0.));
#489=DIRECTION('ref_axis',(-1.,0.,0.));
#490=DIRECTION('',(-0.726858730431576,-0.68678700191209,8.90145217655338E-17));
#491=DIRECTION('center_axis',(0.,1.,0.));
#492=DIRECTION('ref_axis',(0.,0.,1.));
#493=DIRECTION('center_axis',(0.,1.,0.));
#494=DIRECTION('ref_axis',(-1.,0.,0.));
#495=DIRECTION('center_axis',(0.,1.,0.));
#496=DIRECTION('ref_axis',(-1.,0.,0.));
#497=DIRECTION('center_axis',(-1.,0.,1.22464679914735E-16));
#498=DIRECTION('ref_axis',(-1.22464679914735E-16,0.,-1.));
#499=DIRECTION('center_axis',(0.,1.,0.));
#500=DIRECTION('ref_axis',(-1.,0.,0.));
#501=DIRECTION('center_axis',(0.,-1.,0.));
#502=DIRECTION('ref_axis',(-1.,0.,0.));
#503=DIRECTION('',(-0.720950425011494,0.692986641051432,-8.8290963033425E-17));
#504=DIRECTION('center_axis',(0.,1.,0.));
#505=DIRECTION('ref_axis',(-1.,0.,0.));
#506=DIRECTION('center_axis',(0.,1.,0.));
#507=DIRECTION('ref_axis',(-1.,0.,0.));
#508=DIRECTION('center_axis',(0.,1.,0.));
#509=DIRECTION('ref_axis',(-1.,0.,0.));
#510=DIRECTION('center_axis',(0.,1.,0.));
#511=DIRECTION('ref_axis',(-1.,0.,0.));
#512=DIRECTION('center_axis',(0.,1.,0.));
#513=DIRECTION('ref_axis',(-1.,0.,0.));
#514=DIRECTION('',(0.,-1.,0.));
#515=DIRECTION('center_axis',(0.,1.,0.));
#516=DIRECTION('ref_axis',(0.,0.,1.));
#517=CARTESIAN_POINT('',(0.,0.,0.));
#518=CARTESIAN_POINT('Origin',(0.,20.,0.));
#519=CARTESIAN_POINT('',(-2.5,22.5,0.));
#520=CARTESIAN_POINT('',(2.5,22.5,3.06161699786838E-16));
#521=CARTESIAN_POINT('Origin',(0.,22.5,0.));
#522=CARTESIAN_POINT('Origin',(0.,22.5,0.));
#523=CARTESIAN_POINT('',(2.5,17.5,3.06161699786838E-16));
#524=CARTESIAN_POINT('',(2.5,20.,3.06161699786838E-16));
#525=CARTESIAN_POINT('',(-2.5,17.5,0.));
#526=CARTESIAN_POINT('Origin',(0.,17.5,0.));
#527=CARTESIAN_POINT('Origin',(0.,17.5,0.));
#528=CARTESIAN_POINT('Origin',(-5.55111512312578E-16,17.5,0.));
#529=CARTESIAN_POINT('Origin',(-4.85907303497334,5.689893E-15,0.));
#530=CARTESIAN_POINT('',(-9.71814606994667,1.137979E-14,0.));
#531=CARTESIAN_POINT('',(-1.19012964782066E-15,1.13797860024079E-14,-9.71814606994667));
#532=CARTESIAN_POINT('Origin',(0.,1.137979E-14,0.));
#533=CARTESIAN_POINT('Origin',(0.,1.137979E-14,0.));
#534=CARTESIAN_POINT('Origin',(0.,0.300000000000011,0.));
#535=CARTESIAN_POINT('',(-9.91122332330588,0.529610919242202,0.));
#536=CARTESIAN_POINT('',(9.91122332330588,0.529610919242204,1.21377479185211E-15));
#537=CARTESIAN_POINT('Origin',(0.,0.529610919242202,0.));
#538=CARTESIAN_POINT('',(-1.21377479185211E-15,0.529610919242202,-9.91122332330588));
#539=CARTESIAN_POINT('Origin',(0.,0.529610919242202,0.));
#540=CARTESIAN_POINT('Origin',(-1.19012964782066E-15,0.300000000000011,
-9.71814606994667));
#541=CARTESIAN_POINT('Origin',(0.,0.529610919242202,0.));
#542=CARTESIAN_POINT('Origin',(0.,1.19365497941753,0.));
#543=CARTESIAN_POINT('',(7.79079111218389,1.85769903959285,9.54096739836164E-16));
#544=CARTESIAN_POINT('',(8.85100721774488,1.19365497941753,1.08393576584414E-15));
#545=CARTESIAN_POINT('',(-7.79079111218389,1.85769903959286,0.));
#546=CARTESIAN_POINT('Origin',(0.,1.85769903959286,0.));
#547=CARTESIAN_POINT('',(-3.77219778972115E-15,1.85769903959286,-7.79079111218389));
#548=CARTESIAN_POINT('Origin',(0.,1.85769903959286,0.));
#549=CARTESIAN_POINT('Origin',(0.,1.85769903959286,0.));
#550=CARTESIAN_POINT('Origin',(-2.81025203108243E-15,2.56480582077939,1.02695629777827E-14));
#551=CARTESIAN_POINT('',(-7.7052739042656,3.17451658162901,0.));
#552=CARTESIAN_POINT('',(7.70527390426555,3.17451658162906,-9.43623902341244E-16));
#553=CARTESIAN_POINT('Origin',(0.,3.17451658162901,0.));
#554=CARTESIAN_POINT('',(-3.74710802883932E-15,3.17451658162901,-7.7052739042656));
#555=CARTESIAN_POINT('Origin',(0.,3.17451658162901,0.));
#556=CARTESIAN_POINT('Origin',(-3.85094437654215E-15,2.56480582077939,-8.49789789337046));
#557=CARTESIAN_POINT('Origin',(0.,3.17451658162901,0.));
#558=CARTESIAN_POINT('Origin',(0.,4.15740291038968,0.));
#559=CARTESIAN_POINT('',(-9.79262398910418,5.14028923915035,0.));
#560=CARTESIAN_POINT('',(9.79262398910423,5.1402892391503,-1.19925056235101E-15));
#561=CARTESIAN_POINT('Origin',(0.,5.14028923915035,0.));
#562=CARTESIAN_POINT('',(-1.199250562351E-15,5.14028923915035,-9.79262398910418));
#563=CARTESIAN_POINT('Origin',(0.,5.14028923915035,0.));
#564=CARTESIAN_POINT('Origin',(0.,5.14028923915035,0.));
#565=CARTESIAN_POINT('',(8.74894894668489,4.15740291038968,-1.07143723234613E-15));
#566=CARTESIAN_POINT('Origin',(0.,5.75,0.));
#567=CARTESIAN_POINT('',(-9.79262398910442,6.35971076084962,0.));
#568=CARTESIAN_POINT('',(9.79262398910447,6.35971076084967,1.19925056235104E-15));
#569=CARTESIAN_POINT('Origin',(0.,6.35971076084962,0.));
#570=CARTESIAN_POINT('',(-1.19925056235103E-15,6.35971076084962,-9.79262398910442));
#571=CARTESIAN_POINT('Origin',(0.,6.35971076084962,0.));
#572=CARTESIAN_POINT('Origin',(-1.10218211923256E-15,5.75,-8.99999999999955));
#573=CARTESIAN_POINT('Origin',(0.,6.35971076084962,0.));
#574=CARTESIAN_POINT('Origin',(0.,7.37499999999999,0.));
#575=CARTESIAN_POINT('',(7.70737601089532,8.39028923915029,9.43881336156806E-16));
#576=CARTESIAN_POINT('',(8.74999999999989,7.37499999999999,1.07156594925392E-15));
#577=CARTESIAN_POINT('',(-7.70737601089537,8.39028923915034,0.));
#578=CARTESIAN_POINT('Origin',(0.,8.39028923915034,0.));
#579=CARTESIAN_POINT('',(6.44825042438736E-15,8.39028923915034,-7.70737601089537));
#580=CARTESIAN_POINT('Origin',(0.,8.39028923915034,0.));
#581=CARTESIAN_POINT('Origin',(0.,8.39028923915034,0.));
#582=CARTESIAN_POINT('Origin',(7.37257477290143E-15,9.00000000000001,-2.16493489801906E-14));
#583=CARTESIAN_POINT('',(-7.70737601089514,9.60971076084963,0.));
#584=CARTESIAN_POINT('',(7.70737601089518,9.60971076084959,-9.43881336156788E-16));
#585=CARTESIAN_POINT('Origin',(0.,9.60971076084963,0.));
#586=CARTESIAN_POINT('',(6.40913644910191E-15,9.60971076084963,-7.70737601089514));
#587=CARTESIAN_POINT('Origin',(0.,9.60971076084963,0.));
#588=CARTESIAN_POINT('Origin',(6.33162499362618E-15,9.00000000000001,-8.50000000000001));
#589=CARTESIAN_POINT('Origin',(0.,9.60971076084963,0.));
#590=CARTESIAN_POINT('Origin',(0.,10.5956684875887,0.));
#591=CARTESIAN_POINT('',(-9.79434614725937,11.5816262143278,0.));
#592=CARTESIAN_POINT('',(9.79434614725934,11.5816262143278,-1.19946146589824E-15));
#593=CARTESIAN_POINT('Origin',(0.,11.5816262143278,0.));
#594=CARTESIAN_POINT('',(-1.19946146589824E-15,11.5816262143278,-9.79434614725937));
#595=CARTESIAN_POINT('Origin',(0.,11.5816262143278,0.));
#596=CARTESIAN_POINT('Origin',(0.,11.5816262143278,0.));
#597=CARTESIAN_POINT('',(8.75086107907725,10.5956684875887,-1.07167140102751E-15));
#598=CARTESIAN_POINT('Origin',(0.,12.1913369751774,0.));
#599=CARTESIAN_POINT('',(-9.73652560278243,12.8696170779105,0.));
#600=CARTESIAN_POINT('',(9.73652560278244,12.8696170779105,1.19238049142638E-15));
#601=CARTESIAN_POINT('Origin',(0.,12.8696170779105,0.));
#602=CARTESIAN_POINT('',(-1.19238049142638E-15,12.8696170779105,-9.73652560278243));
#603=CARTESIAN_POINT('Origin',(0.,12.8696170779105,0.));
#604=CARTESIAN_POINT('Origin',(-1.1023930227798E-15,12.1913369751774,-9.00172215815474));
#605=CARTESIAN_POINT('Origin',(0.,12.8696170779105,0.));
#606=CARTESIAN_POINT('Origin',(0.,14.1848085389553,0.));
#607=CARTESIAN_POINT('',(6.99999999999999,15.5000000000001,8.57252759403146E-16));
#608=CARTESIAN_POINT('',(8.36826280139121,14.1848085389553,1.02481662541476E-15));
#609=CARTESIAN_POINT('',(-7.,15.5000000000001,0.));
#610=CARTESIAN_POINT('Origin',(0.,15.5000000000001,0.));
#611=CARTESIAN_POINT('Origin',(0.,15.5000000000001,0.));
#612=CARTESIAN_POINT('Origin',(0.,19.,0.));
#613=CARTESIAN_POINT('',(-7.,22.5,0.));
#614=CARTESIAN_POINT('',(7.,22.5,-8.57252759403147E-16));
#615=CARTESIAN_POINT('Origin',(0.,22.5,0.));
#616=CARTESIAN_POINT('Origin',(0.,22.5,0.));
#617=CARTESIAN_POINT('',(7.,19.,-8.57252759403147E-16));
#618=CARTESIAN_POINT('Origin',(-3.5,22.5,0.));
#619=UNCERTAINTY_MEASURE_WITH_UNIT(LENGTH_MEASURE(0.01),#623,
'DISTANCE_ACCURACY_VALUE',
'Maximum model space distance between geometric entities at asserted c
onnectivities');
#620=UNCERTAINTY_MEASURE_WITH_UNIT(LENGTH_MEASURE(0.01),#623,
'DISTANCE_ACCURACY_VALUE',
'Maximum model space distance between geometric entities at asserted c
onnectivities');
#621=(
GEOMETRIC_REPRESENTATION_CONTEXT(3)
GLOBAL_UNCERTAINTY_ASSIGNED_CONTEXT((#619))
GLOBAL_UNIT_ASSIGNED_CONTEXT((#623,#626,#625))
REPRESENTATION_CONTEXT('','3D')
);
#622=(
GEOMETRIC_REPRESENTATION_CONTEXT(3)
GLOBAL_UNCERTAINTY_ASSIGNED_CONTEXT((#620))
GLOBAL_UNIT_ASSIGNED_CONTEXT((#623,#626,#625))
REPRESENTATION_CONTEXT('','3D')
);
#623=(
LENGTH_UNIT()
NAMED_UNIT(*)
SI_UNIT(.MILLI.,.METRE.)
);
#624=(
LENGTH_UNIT()
NAMED_UNIT(*)
SI_UNIT(.CENTI.,.METRE.)
);
#625=(
NAMED_UNIT(*)
SI_UNIT($,.STERADIAN.)
SOLID_ANGLE_UNIT()
);
#626=(
NAMED_UNIT(*)
PLANE_ANGLE_UNIT()
SI_UNIT($,.RADIAN.)
);
#627=SHAPE_DEFINITION_REPRESENTATION(#628,#629);
#628=PRODUCT_DEFINITION_SHAPE('',$,#631);
#629=SHAPE_REPRESENTATION('',(#336),#621);
#630=PRODUCT_DEFINITION_CONTEXT('part definition',#635,'design');
#631=PRODUCT_DEFINITION('3D_vf20','3D_vf20',#632,#630);
#632=PRODUCT_DEFINITION_FORMATION('',$,#637);
#633=PRODUCT_RELATED_PRODUCT_CATEGORY('3D_vf20','3D_vf20',(#637));
#634=APPLICATION_PROTOCOL_DEFINITION('international standard',
'automotive_design',2009,#635);
#635=APPLICATION_CONTEXT(
'Core Data for Automotive Mechanical Design Process');
#636=PRODUCT_CONTEXT('part definition',#635,'mechanical');
#637=PRODUCT('3D_vf20','3D_vf20',$,(#636));
#638=PRESENTATION_STYLE_ASSIGNMENT((#640));
#639=PRESENTATION_STYLE_ASSIGNMENT((#641));
#640=SURFACE_STYLE_USAGE(.BOTH.,#642);
#641=SURFACE_STYLE_USAGE(.BOTH.,#643);
#642=SURFACE_SIDE_STYLE('',(#644));
#643=SURFACE_SIDE_STYLE('',(#645));
#644=SURFACE_STYLE_FILL_AREA(#646);
#645=SURFACE_STYLE_FILL_AREA(#647);
#646=FILL_AREA_STYLE('',(#648));
#647=FILL_AREA_STYLE('',(#649));
#648=FILL_AREA_STYLE_COLOUR('',#650);
#649=FILL_AREA_STYLE_COLOUR('',#651);
#650=COLOUR_RGB('',0.749019607843137,0.749019607843137,0.749019607843137);
#651=COLOUR_RGB('',0.752941176470588,0.752941176470588,0.752941176470588);
ENDSEC;
END-ISO-10303-21;
