ISO-10303-21;
HEADER;
/* Generated by software containing ST-Developer
 * from STEP Tools, Inc. (www.steptools.com) 
 */

FILE_DESCRIPTION(
/* description */ (''),
/* implementation_level */ '2;1');

FILE_NAME(
/* name */ 
'Z:\\14-ALMACEN-3D\\WEB-2020\\grandes-cargas\\vfr\\3D_vfb150nit.stp',
/* time_stamp */ '2020-04-08T10:02:28+02:00',
/* author */ ('lmacia'),
/* organization */ (''),
/* preprocessor_version */ 'ST-DEVELOPER v17',
/* originating_system */ 'Autodesk Inventor 2019',
/* authorisation */ '');

FILE_SCHEMA (('AUTOMOTIVE_DESIGN { 1 0 10303 214 3 1 1 }'));
ENDSEC;

DATA;
#10=MECHANICAL_DESIGN_GEOMETRIC_PRESENTATION_REPRESENTATION('',(#17,#18,
#19,#20),#571);
#11=SHAPE_REPRESENTATION_RELATIONSHIP('SRR','None',#578,#12);
#12=ADVANCED_BREP_SHAPE_REPRESENTATION('',(#13),#570);
#13=MANIFOLD_SOLID_BREP('S\X\F3lido1',#300);
#14=TOROIDAL_SURFACE('',#363,69.9617146329256,5.10853573437996);
#15=FACE_BOUND('',#74,.T.);
#16=FACE_BOUND('',#78,.T.);
#17=STYLED_ITEM('',(#588),#287);
#18=STYLED_ITEM('',(#588),#288);
#19=STYLED_ITEM('',(#588),#289);
#20=STYLED_ITEM('',(#587),#13);
#21=CYLINDRICAL_SURFACE('',#326,10.4774999999936);
#22=CYLINDRICAL_SURFACE('',#335,43.);
#23=CYLINDRICAL_SURFACE('',#344,75.);
#24=CYLINDRICAL_SURFACE('',#353,75.);
#25=LINE('',#488,#36);
#26=LINE('',#494,#37);
#27=LINE('',#505,#38);
#28=LINE('',#511,#39);
#29=LINE('',#522,#40);
#30=LINE('',#528,#41);
#31=LINE('',#534,#42);
#32=LINE('',#540,#43);
#33=LINE('',#546,#44);
#34=LINE('',#552,#45);
#35=LINE('',#559,#46);
#36=VECTOR('',#382,9.89649999999163);
#37=VECTOR('',#389,10.4774999999936);
#38=VECTOR('',#402,33.);
#39=VECTOR('',#409,43.);
#40=VECTOR('',#422,63.75);
#41=VECTOR('',#429,75.);
#42=VECTOR('',#436,68.75);
#43=VECTOR('',#443,68.75);
#44=VECTOR('',#450,75.);
#45=VECTOR('',#457,68.75);
#46=VECTOR('',#464,67.25);
#47=CONICAL_SURFACE('',#323,9.89649999999163,0.788635795075903);
#48=CONICAL_SURFACE('',#332,33.,1.10714871779409);
#49=CONICAL_SURFACE('',#341,63.75,1.22918083614709);
#50=CONICAL_SURFACE('',#347,68.75,1.29778762370819);
#51=CONICAL_SURFACE('',#350,68.75,1.29778762370819);
#52=CONICAL_SURFACE('',#356,68.75,1.29778762370819);
#53=CONICAL_SURFACE('',#359,67.25,1.29778762370816);
#54=FACE_OUTER_BOUND('',#70,.T.);
#55=FACE_OUTER_BOUND('',#71,.T.);
#56=FACE_OUTER_BOUND('',#72,.T.);
#57=FACE_OUTER_BOUND('',#73,.T.);
#58=FACE_OUTER_BOUND('',#75,.T.);
#59=FACE_OUTER_BOUND('',#76,.T.);
#60=FACE_OUTER_BOUND('',#77,.T.);
#61=FACE_OUTER_BOUND('',#79,.T.);
#62=FACE_OUTER_BOUND('',#80,.T.);
#63=FACE_OUTER_BOUND('',#81,.T.);
#64=FACE_OUTER_BOUND('',#82,.T.);
#65=FACE_OUTER_BOUND('',#83,.T.);
#66=FACE_OUTER_BOUND('',#84,.T.);
#67=FACE_OUTER_BOUND('',#85,.T.);
#68=FACE_OUTER_BOUND('',#86,.T.);
#69=FACE_OUTER_BOUND('',#87,.T.);
#70=EDGE_LOOP('',(#194,#195));
#71=EDGE_LOOP('',(#196,#197,#198,#199,#200,#201));
#72=EDGE_LOOP('',(#202,#203,#204,#205,#206,#207));
#73=EDGE_LOOP('',(#208,#209));
#74=EDGE_LOOP('',(#210,#211));
#75=EDGE_LOOP('',(#212,#213,#214,#215,#216,#217));
#76=EDGE_LOOP('',(#218,#219,#220,#221,#222,#223));
#77=EDGE_LOOP('',(#224,#225));
#78=EDGE_LOOP('',(#226,#227));
#79=EDGE_LOOP('',(#228,#229,#230,#231,#232,#233));
#80=EDGE_LOOP('',(#234,#235,#236,#237,#238,#239));
#81=EDGE_LOOP('',(#240,#241,#242,#243,#244,#245));
#82=EDGE_LOOP('',(#246,#247,#248,#249,#250,#251));
#83=EDGE_LOOP('',(#252,#253,#254,#255,#256,#257));
#84=EDGE_LOOP('',(#258,#259,#260,#261,#262,#263));
#85=EDGE_LOOP('',(#264,#265,#266,#267,#268,#269,#270));
#86=EDGE_LOOP('',(#271,#272,#273,#274,#275,#276,#277));
#87=EDGE_LOOP('',(#278,#279));
#88=CIRCLE('',#321,9.31549999999696);
#89=CIRCLE('',#322,9.31549999999696);
#90=CIRCLE('',#324,10.4774999999863);
#91=CIRCLE('',#325,10.4774999999863);
#92=CIRCLE('',#327,10.4775000000009);
#93=CIRCLE('',#328,10.4775000000009);
#94=CIRCLE('',#330,23.);
#95=CIRCLE('',#331,23.);
#96=CIRCLE('',#333,43.);
#97=CIRCLE('',#334,43.);
#98=CIRCLE('',#336,43.);
#99=CIRCLE('',#337,43.);
#100=CIRCLE('',#339,52.5);
#101=CIRCLE('',#340,52.5);
#102=CIRCLE('',#342,75.);
#103=CIRCLE('',#343,75.);
#104=CIRCLE('',#345,75.);
#105=CIRCLE('',#346,75.);
#106=CIRCLE('',#348,62.5);
#107=CIRCLE('',#349,62.5);
#108=CIRCLE('',#351,75.);
#109=CIRCLE('',#352,75.);
#110=CIRCLE('',#354,75.);
#111=CIRCLE('',#355,75.);
#112=CIRCLE('',#357,62.5);
#113=CIRCLE('',#358,62.5);
#114=CIRCLE('',#360,72.);
#115=CIRCLE('',#361,72.);
#116=CIRCLE('',#362,72.);
#117=CIRCLE('',#364,75.000000000005);
#118=CIRCLE('',#365,75.000000000005);
#119=CIRCLE('',#366,5.10853573437996);
#120=VERTEX_POINT('',#479);
#121=VERTEX_POINT('',#480);
#122=VERTEX_POINT('',#484);
#123=VERTEX_POINT('',#485);
#124=VERTEX_POINT('',#490);
#125=VERTEX_POINT('',#491);
#126=VERTEX_POINT('',#496);
#127=VERTEX_POINT('',#497);
#128=VERTEX_POINT('',#501);
#129=VERTEX_POINT('',#502);
#130=VERTEX_POINT('',#507);
#131=VERTEX_POINT('',#508);
#132=VERTEX_POINT('',#513);
#133=VERTEX_POINT('',#514);
#134=VERTEX_POINT('',#518);
#135=VERTEX_POINT('',#519);
#136=VERTEX_POINT('',#524);
#137=VERTEX_POINT('',#525);
#138=VERTEX_POINT('',#530);
#139=VERTEX_POINT('',#531);
#140=VERTEX_POINT('',#536);
#141=VERTEX_POINT('',#537);
#142=VERTEX_POINT('',#542);
#143=VERTEX_POINT('',#543);
#144=VERTEX_POINT('',#548);
#145=VERTEX_POINT('',#549);
#146=VERTEX_POINT('',#554);
#147=VERTEX_POINT('',#555);
#148=VERTEX_POINT('',#557);
#149=VERTEX_POINT('',#562);
#150=VERTEX_POINT('',#563);
#151=EDGE_CURVE('',#120,#121,#88,.T.);
#152=EDGE_CURVE('',#121,#120,#89,.T.);
#153=EDGE_CURVE('',#122,#123,#90,.T.);
#154=EDGE_CURVE('',#123,#122,#91,.T.);
#155=EDGE_CURVE('',#123,#121,#25,.T.);
#156=EDGE_CURVE('',#124,#125,#92,.T.);
#157=EDGE_CURVE('',#125,#124,#93,.T.);
#158=EDGE_CURVE('',#125,#123,#26,.T.);
#159=EDGE_CURVE('',#126,#127,#94,.T.);
#160=EDGE_CURVE('',#127,#126,#95,.T.);
#161=EDGE_CURVE('',#128,#129,#96,.T.);
#162=EDGE_CURVE('',#129,#128,#97,.T.);
#163=EDGE_CURVE('',#129,#127,#27,.T.);
#164=EDGE_CURVE('',#130,#131,#98,.T.);
#165=EDGE_CURVE('',#131,#130,#99,.T.);
#166=EDGE_CURVE('',#131,#129,#28,.T.);
#167=EDGE_CURVE('',#132,#133,#100,.T.);
#168=EDGE_CURVE('',#133,#132,#101,.T.);
#169=EDGE_CURVE('',#134,#135,#102,.T.);
#170=EDGE_CURVE('',#135,#134,#103,.T.);
#171=EDGE_CURVE('',#135,#133,#29,.T.);
#172=EDGE_CURVE('',#136,#137,#104,.T.);
#173=EDGE_CURVE('',#137,#136,#105,.T.);
#174=EDGE_CURVE('',#137,#135,#30,.T.);
#175=EDGE_CURVE('',#138,#139,#106,.T.);
#176=EDGE_CURVE('',#139,#138,#107,.T.);
#177=EDGE_CURVE('',#139,#137,#31,.T.);
#178=EDGE_CURVE('',#140,#141,#108,.T.);
#179=EDGE_CURVE('',#141,#140,#109,.T.);
#180=EDGE_CURVE('',#141,#139,#32,.T.);
#181=EDGE_CURVE('',#142,#143,#110,.T.);
#182=EDGE_CURVE('',#143,#142,#111,.T.);
#183=EDGE_CURVE('',#143,#141,#33,.T.);
#184=EDGE_CURVE('',#144,#145,#112,.T.);
#185=EDGE_CURVE('',#145,#144,#113,.T.);
#186=EDGE_CURVE('',#145,#143,#34,.T.);
#187=EDGE_CURVE('',#146,#147,#114,.T.);
#188=EDGE_CURVE('',#148,#146,#115,.T.);
#189=EDGE_CURVE('',#148,#145,#35,.T.);
#190=EDGE_CURVE('',#147,#148,#116,.T.);
#191=EDGE_CURVE('',#149,#150,#117,.T.);
#192=EDGE_CURVE('',#150,#149,#118,.T.);
#193=EDGE_CURVE('',#150,#147,#119,.T.);
#194=ORIENTED_EDGE('',*,*,#151,.F.);
#195=ORIENTED_EDGE('',*,*,#152,.F.);
#196=ORIENTED_EDGE('',*,*,#153,.F.);
#197=ORIENTED_EDGE('',*,*,#154,.F.);
#198=ORIENTED_EDGE('',*,*,#155,.T.);
#199=ORIENTED_EDGE('',*,*,#152,.T.);
#200=ORIENTED_EDGE('',*,*,#151,.T.);
#201=ORIENTED_EDGE('',*,*,#155,.F.);
#202=ORIENTED_EDGE('',*,*,#156,.F.);
#203=ORIENTED_EDGE('',*,*,#157,.F.);
#204=ORIENTED_EDGE('',*,*,#158,.T.);
#205=ORIENTED_EDGE('',*,*,#154,.T.);
#206=ORIENTED_EDGE('',*,*,#153,.T.);
#207=ORIENTED_EDGE('',*,*,#158,.F.);
#208=ORIENTED_EDGE('',*,*,#159,.F.);
#209=ORIENTED_EDGE('',*,*,#160,.F.);
#210=ORIENTED_EDGE('',*,*,#156,.T.);
#211=ORIENTED_EDGE('',*,*,#157,.T.);
#212=ORIENTED_EDGE('',*,*,#161,.F.);
#213=ORIENTED_EDGE('',*,*,#162,.F.);
#214=ORIENTED_EDGE('',*,*,#163,.T.);
#215=ORIENTED_EDGE('',*,*,#160,.T.);
#216=ORIENTED_EDGE('',*,*,#159,.T.);
#217=ORIENTED_EDGE('',*,*,#163,.F.);
#218=ORIENTED_EDGE('',*,*,#164,.F.);
#219=ORIENTED_EDGE('',*,*,#165,.F.);
#220=ORIENTED_EDGE('',*,*,#166,.T.);
#221=ORIENTED_EDGE('',*,*,#162,.T.);
#222=ORIENTED_EDGE('',*,*,#161,.T.);
#223=ORIENTED_EDGE('',*,*,#166,.F.);
#224=ORIENTED_EDGE('',*,*,#167,.F.);
#225=ORIENTED_EDGE('',*,*,#168,.F.);
#226=ORIENTED_EDGE('',*,*,#164,.T.);
#227=ORIENTED_EDGE('',*,*,#165,.T.);
#228=ORIENTED_EDGE('',*,*,#169,.F.);
#229=ORIENTED_EDGE('',*,*,#170,.F.);
#230=ORIENTED_EDGE('',*,*,#171,.T.);
#231=ORIENTED_EDGE('',*,*,#168,.T.);
#232=ORIENTED_EDGE('',*,*,#167,.T.);
#233=ORIENTED_EDGE('',*,*,#171,.F.);
#234=ORIENTED_EDGE('',*,*,#172,.F.);
#235=ORIENTED_EDGE('',*,*,#173,.F.);
#236=ORIENTED_EDGE('',*,*,#174,.T.);
#237=ORIENTED_EDGE('',*,*,#170,.T.);
#238=ORIENTED_EDGE('',*,*,#169,.T.);
#239=ORIENTED_EDGE('',*,*,#174,.F.);
#240=ORIENTED_EDGE('',*,*,#175,.F.);
#241=ORIENTED_EDGE('',*,*,#176,.F.);
#242=ORIENTED_EDGE('',*,*,#177,.T.);
#243=ORIENTED_EDGE('',*,*,#173,.T.);
#244=ORIENTED_EDGE('',*,*,#172,.T.);
#245=ORIENTED_EDGE('',*,*,#177,.F.);
#246=ORIENTED_EDGE('',*,*,#178,.F.);
#247=ORIENTED_EDGE('',*,*,#179,.F.);
#248=ORIENTED_EDGE('',*,*,#180,.T.);
#249=ORIENTED_EDGE('',*,*,#176,.T.);
#250=ORIENTED_EDGE('',*,*,#175,.T.);
#251=ORIENTED_EDGE('',*,*,#180,.F.);
#252=ORIENTED_EDGE('',*,*,#181,.F.);
#253=ORIENTED_EDGE('',*,*,#182,.F.);
#254=ORIENTED_EDGE('',*,*,#183,.T.);
#255=ORIENTED_EDGE('',*,*,#179,.T.);
#256=ORIENTED_EDGE('',*,*,#178,.T.);
#257=ORIENTED_EDGE('',*,*,#183,.F.);
#258=ORIENTED_EDGE('',*,*,#184,.F.);
#259=ORIENTED_EDGE('',*,*,#185,.F.);
#260=ORIENTED_EDGE('',*,*,#186,.T.);
#261=ORIENTED_EDGE('',*,*,#182,.T.);
#262=ORIENTED_EDGE('',*,*,#181,.T.);
#263=ORIENTED_EDGE('',*,*,#186,.F.);
#264=ORIENTED_EDGE('',*,*,#187,.F.);
#265=ORIENTED_EDGE('',*,*,#188,.F.);
#266=ORIENTED_EDGE('',*,*,#189,.T.);
#267=ORIENTED_EDGE('',*,*,#185,.T.);
#268=ORIENTED_EDGE('',*,*,#184,.T.);
#269=ORIENTED_EDGE('',*,*,#189,.F.);
#270=ORIENTED_EDGE('',*,*,#190,.F.);
#271=ORIENTED_EDGE('',*,*,#191,.F.);
#272=ORIENTED_EDGE('',*,*,#192,.F.);
#273=ORIENTED_EDGE('',*,*,#193,.T.);
#274=ORIENTED_EDGE('',*,*,#190,.T.);
#275=ORIENTED_EDGE('',*,*,#188,.T.);
#276=ORIENTED_EDGE('',*,*,#187,.T.);
#277=ORIENTED_EDGE('',*,*,#193,.F.);
#278=ORIENTED_EDGE('',*,*,#191,.T.);
#279=ORIENTED_EDGE('',*,*,#192,.T.);
#280=PLANE('',#320);
#281=PLANE('',#329);
#282=PLANE('',#338);
#283=PLANE('',#367);
#284=ADVANCED_FACE('',(#54),#280,.T.);
#285=ADVANCED_FACE('',(#55),#47,.T.);
#286=ADVANCED_FACE('',(#56),#21,.T.);
#287=ADVANCED_FACE('',(#57,#15),#281,.T.);
#288=ADVANCED_FACE('',(#58),#48,.T.);
#289=ADVANCED_FACE('',(#59),#22,.T.);
#290=ADVANCED_FACE('',(#60,#16),#282,.T.);
#291=ADVANCED_FACE('',(#61),#49,.T.);
#292=ADVANCED_FACE('',(#62),#23,.T.);
#293=ADVANCED_FACE('',(#63),#50,.T.);
#294=ADVANCED_FACE('',(#64),#51,.T.);
#295=ADVANCED_FACE('',(#65),#24,.T.);
#296=ADVANCED_FACE('',(#66),#52,.T.);
#297=ADVANCED_FACE('',(#67),#53,.T.);
#298=ADVANCED_FACE('',(#68),#14,.T.);
#299=ADVANCED_FACE('',(#69),#283,.T.);
#300=CLOSED_SHELL('',(#284,#285,#286,#287,#288,#289,#290,#291,#292,#293,
#294,#295,#296,#297,#298,#299));
#301=DERIVED_UNIT_ELEMENT(#303,1.);
#302=DERIVED_UNIT_ELEMENT(#573,3.);
#303=(
MASS_UNIT()
NAMED_UNIT(*)
SI_UNIT($,.GRAM.)
);
#304=DERIVED_UNIT((#301,#302));
#305=MEASURE_REPRESENTATION_ITEM('density measure',
POSITIVE_RATIO_MEASURE(1.),#304);
#306=PROPERTY_DEFINITION_REPRESENTATION(#311,#308);
#307=PROPERTY_DEFINITION_REPRESENTATION(#312,#309);
#308=REPRESENTATION('material name',(#310),#570);
#309=REPRESENTATION('density',(#305),#570);
#310=DESCRIPTIVE_REPRESENTATION_ITEM('Gen\X\E9rico','Gen\X\E9rico');
#311=PROPERTY_DEFINITION('material property','material name',#580);
#312=PROPERTY_DEFINITION('material property','density of part',#580);
#313=DATE_TIME_ROLE('creation_date');
#314=APPLIED_DATE_AND_TIME_ASSIGNMENT(#315,#313,(#580));
#315=DATE_AND_TIME(#316,#317);
#316=CALENDAR_DATE(2020,6,4);
#317=LOCAL_TIME(10,45,59.,#318);
#318=COORDINATED_UNIVERSAL_TIME_OFFSET(0,0,.BEHIND.);
#319=AXIS2_PLACEMENT_3D('placement',#477,#368,#369);
#320=AXIS2_PLACEMENT_3D('',#478,#370,#371);
#321=AXIS2_PLACEMENT_3D('',#481,#372,#373);
#322=AXIS2_PLACEMENT_3D('',#482,#374,#375);
#323=AXIS2_PLACEMENT_3D('',#483,#376,#377);
#324=AXIS2_PLACEMENT_3D('',#486,#378,#379);
#325=AXIS2_PLACEMENT_3D('',#487,#380,#381);
#326=AXIS2_PLACEMENT_3D('',#489,#383,#384);
#327=AXIS2_PLACEMENT_3D('',#492,#385,#386);
#328=AXIS2_PLACEMENT_3D('',#493,#387,#388);
#329=AXIS2_PLACEMENT_3D('',#495,#390,#391);
#330=AXIS2_PLACEMENT_3D('',#498,#392,#393);
#331=AXIS2_PLACEMENT_3D('',#499,#394,#395);
#332=AXIS2_PLACEMENT_3D('',#500,#396,#397);
#333=AXIS2_PLACEMENT_3D('',#503,#398,#399);
#334=AXIS2_PLACEMENT_3D('',#504,#400,#401);
#335=AXIS2_PLACEMENT_3D('',#506,#403,#404);
#336=AXIS2_PLACEMENT_3D('',#509,#405,#406);
#337=AXIS2_PLACEMENT_3D('',#510,#407,#408);
#338=AXIS2_PLACEMENT_3D('',#512,#410,#411);
#339=AXIS2_PLACEMENT_3D('',#515,#412,#413);
#340=AXIS2_PLACEMENT_3D('',#516,#414,#415);
#341=AXIS2_PLACEMENT_3D('',#517,#416,#417);
#342=AXIS2_PLACEMENT_3D('',#520,#418,#419);
#343=AXIS2_PLACEMENT_3D('',#521,#420,#421);
#344=AXIS2_PLACEMENT_3D('',#523,#423,#424);
#345=AXIS2_PLACEMENT_3D('',#526,#425,#426);
#346=AXIS2_PLACEMENT_3D('',#527,#427,#428);
#347=AXIS2_PLACEMENT_3D('',#529,#430,#431);
#348=AXIS2_PLACEMENT_3D('',#532,#432,#433);
#349=AXIS2_PLACEMENT_3D('',#533,#434,#435);
#350=AXIS2_PLACEMENT_3D('',#535,#437,#438);
#351=AXIS2_PLACEMENT_3D('',#538,#439,#440);
#352=AXIS2_PLACEMENT_3D('',#539,#441,#442);
#353=AXIS2_PLACEMENT_3D('',#541,#444,#445);
#354=AXIS2_PLACEMENT_3D('',#544,#446,#447);
#355=AXIS2_PLACEMENT_3D('',#545,#448,#449);
#356=AXIS2_PLACEMENT_3D('',#547,#451,#452);
#357=AXIS2_PLACEMENT_3D('',#550,#453,#454);
#358=AXIS2_PLACEMENT_3D('',#551,#455,#456);
#359=AXIS2_PLACEMENT_3D('',#553,#458,#459);
#360=AXIS2_PLACEMENT_3D('',#556,#460,#461);
#361=AXIS2_PLACEMENT_3D('',#558,#462,#463);
#362=AXIS2_PLACEMENT_3D('',#560,#465,#466);
#363=AXIS2_PLACEMENT_3D('',#561,#467,#468);
#364=AXIS2_PLACEMENT_3D('',#564,#469,#470);
#365=AXIS2_PLACEMENT_3D('',#565,#471,#472);
#366=AXIS2_PLACEMENT_3D('',#566,#473,#474);
#367=AXIS2_PLACEMENT_3D('',#567,#475,#476);
#368=DIRECTION('axis',(0.,0.,1.));
#369=DIRECTION('refdir',(1.,0.,0.));
#370=DIRECTION('center_axis',(0.,1.,0.));
#371=DIRECTION('ref_axis',(0.,0.,1.));
#372=DIRECTION('center_axis',(0.,-1.,0.));
#373=DIRECTION('ref_axis',(1.,0.,0.));
#374=DIRECTION('center_axis',(0.,-1.,0.));
#375=DIRECTION('ref_axis',(1.,0.,0.));
#376=DIRECTION('center_axis',(0.,-1.,0.));
#377=DIRECTION('ref_axis',(1.,0.,0.));
#378=DIRECTION('center_axis',(0.,-1.,0.));
#379=DIRECTION('ref_axis',(1.,0.,0.));
#380=DIRECTION('center_axis',(0.,-1.,0.));
#381=DIRECTION('ref_axis',(1.,0.,0.));
#382=DIRECTION('',(0.709392422466841,0.704813727836388,8.68755159513404E-17));
#383=DIRECTION('center_axis',(0.,-1.,0.));
#384=DIRECTION('ref_axis',(1.,0.,0.));
#385=DIRECTION('center_axis',(0.,-1.,0.));
#386=DIRECTION('ref_axis',(1.,0.,0.));
#387=DIRECTION('center_axis',(0.,-1.,0.));
#388=DIRECTION('ref_axis',(1.,0.,0.));
#389=DIRECTION('',(0.,1.,0.));
#390=DIRECTION('center_axis',(0.,1.,0.));
#391=DIRECTION('ref_axis',(0.,0.,1.));
#392=DIRECTION('center_axis',(0.,-1.,0.));
#393=DIRECTION('ref_axis',(1.,0.,0.));
#394=DIRECTION('center_axis',(0.,-1.,0.));
#395=DIRECTION('ref_axis',(1.,0.,0.));
#396=DIRECTION('center_axis',(0.,-1.,0.));
#397=DIRECTION('ref_axis',(1.,0.,0.));
#398=DIRECTION('center_axis',(0.,-1.,0.));
#399=DIRECTION('ref_axis',(1.,0.,0.));
#400=DIRECTION('center_axis',(0.,-1.,0.));
#401=DIRECTION('ref_axis',(1.,0.,0.));
#402=DIRECTION('',(0.894427190999916,0.447213595499958,1.09535739652841E-16));
#403=DIRECTION('center_axis',(0.,-1.,0.));
#404=DIRECTION('ref_axis',(1.,0.,0.));
#405=DIRECTION('center_axis',(0.,-1.,0.));
#406=DIRECTION('ref_axis',(1.,0.,0.));
#407=DIRECTION('center_axis',(0.,-1.,0.));
#408=DIRECTION('ref_axis',(1.,0.,0.));
#409=DIRECTION('',(0.,1.,0.));
#410=DIRECTION('center_axis',(0.,1.,0.));
#411=DIRECTION('ref_axis',(0.,0.,1.));
#412=DIRECTION('center_axis',(0.,-1.,0.));
#413=DIRECTION('ref_axis',(1.,0.,0.));
#414=DIRECTION('center_axis',(0.,-1.,0.));
#415=DIRECTION('ref_axis',(1.,0.,0.));
#416=DIRECTION('center_axis',(0.,-1.,0.));
#417=DIRECTION('ref_axis',(1.,0.,0.));
#418=DIRECTION('center_axis',(0.,-1.,0.));
#419=DIRECTION('ref_axis',(1.,0.,0.));
#420=DIRECTION('center_axis',(0.,-1.,0.));
#421=DIRECTION('ref_axis',(1.,0.,0.));
#422=DIRECTION('',(0.942214690279141,0.335009667654806,1.15388020455996E-16));
#423=DIRECTION('center_axis',(0.,-1.,0.));
#424=DIRECTION('ref_axis',(1.,0.,0.));
#425=DIRECTION('center_axis',(0.,-1.,0.));
#426=DIRECTION('ref_axis',(1.,0.,0.));
#427=DIRECTION('center_axis',(0.,-1.,0.));
#428=DIRECTION('ref_axis',(1.,0.,0.));
#429=DIRECTION('',(0.,1.,0.));
#430=DIRECTION('center_axis',(0.,1.,0.));
#431=DIRECTION('ref_axis',(1.,0.,0.));
#432=DIRECTION('center_axis',(0.,-1.,0.));
#433=DIRECTION('ref_axis',(1.,0.,0.));
#434=DIRECTION('center_axis',(0.,-1.,0.));
#435=DIRECTION('ref_axis',(1.,0.,0.));
#436=DIRECTION('',(-0.962964019714182,0.269629925519971,-1.17929080443704E-16));
#437=DIRECTION('center_axis',(0.,-1.,0.));
#438=DIRECTION('ref_axis',(1.,0.,0.));
#439=DIRECTION('center_axis',(0.,-1.,0.));
#440=DIRECTION('ref_axis',(1.,0.,0.));
#441=DIRECTION('center_axis',(0.,-1.,0.));
#442=DIRECTION('ref_axis',(1.,0.,0.));
#443=DIRECTION('',(0.962964019714182,0.269629925519971,1.17929080443704E-16));
#444=DIRECTION('center_axis',(0.,-1.,0.));
#445=DIRECTION('ref_axis',(1.,0.,0.));
#446=DIRECTION('center_axis',(0.,-1.,0.));
#447=DIRECTION('ref_axis',(1.,0.,0.));
#448=DIRECTION('center_axis',(0.,-1.,0.));
#449=DIRECTION('ref_axis',(1.,0.,0.));
#450=DIRECTION('',(0.,1.,0.));
#451=DIRECTION('center_axis',(0.,1.,0.));
#452=DIRECTION('ref_axis',(1.,0.,0.));
#453=DIRECTION('center_axis',(0.,-1.,0.));
#454=DIRECTION('ref_axis',(1.,0.,0.));
#455=DIRECTION('center_axis',(0.,-1.,0.));
#456=DIRECTION('ref_axis',(1.,0.,0.));
#457=DIRECTION('',(-0.962964019714182,0.269629925519971,-1.17929080443704E-16));
#458=DIRECTION('center_axis',(0.,-1.,0.));
#459=DIRECTION('ref_axis',(1.,0.,0.));
#460=DIRECTION('center_axis',(0.,-1.,0.));
#461=DIRECTION('ref_axis',(1.,0.,0.));
#462=DIRECTION('center_axis',(0.,-1.,0.));
#463=DIRECTION('ref_axis',(1.,0.,0.));
#464=DIRECTION('',(0.962964019714174,0.269629925519999,1.17929080443703E-16));
#465=DIRECTION('center_axis',(0.,-1.,0.));
#466=DIRECTION('ref_axis',(1.,0.,0.));
#467=DIRECTION('center_axis',(0.,-1.,0.));
#468=DIRECTION('ref_axis',(0.,0.,-1.));
#469=DIRECTION('center_axis',(0.,-1.,0.));
#470=DIRECTION('ref_axis',(1.,0.,0.));
#471=DIRECTION('center_axis',(0.,-1.,0.));
#472=DIRECTION('ref_axis',(1.,0.,0.));
#473=DIRECTION('center_axis',(-1.,0.,-1.22464679914735E-16));
#474=DIRECTION('ref_axis',(-1.22464679914735E-16,0.,1.));
#475=DIRECTION('center_axis',(0.,-1.,0.));
#476=DIRECTION('ref_axis',(0.,0.,-1.));
#477=CARTESIAN_POINT('',(0.,0.,0.));
#478=CARTESIAN_POINT('Origin',(9.31549999999696,95.0000000000005,0.));
#479=CARTESIAN_POINT('',(9.31549999999696,95.0000000000005,0.));
#480=CARTESIAN_POINT('',(-9.31549999999696,95.0000000000005,-1.14081972574534E-15));
#481=CARTESIAN_POINT('Origin',(0.,95.0000000000005,0.));
#482=CARTESIAN_POINT('Origin',(0.,95.0000000000005,0.));
#483=CARTESIAN_POINT('Origin',(0.,94.4227500000002,0.));
#484=CARTESIAN_POINT('',(10.4774999999863,93.8454999999999,0.));
#485=CARTESIAN_POINT('',(-10.4774999999863,93.8454999999999,-1.28312368380496E-15));
#486=CARTESIAN_POINT('Origin',(0.,93.8454999999999,0.));
#487=CARTESIAN_POINT('Origin',(0.,93.8454999999999,0.));
#488=CARTESIAN_POINT('',(-9.89649999999163,94.4227500000002,-1.21197170477515E-15));
#489=CARTESIAN_POINT('Origin',(0.,72.42275,0.));
#490=CARTESIAN_POINT('',(10.4775000000009,51.,0.));
#491=CARTESIAN_POINT('',(-10.4774999999936,51.,-1.28312368380585E-15));
#492=CARTESIAN_POINT('Origin',(0.,51.,0.));
#493=CARTESIAN_POINT('Origin',(0.,51.,0.));
#494=CARTESIAN_POINT('',(-10.4774999999936,72.42275,-1.28312368380585E-15));
#495=CARTESIAN_POINT('Origin',(23.,51.,0.));
#496=CARTESIAN_POINT('',(23.,51.,0.));
#497=CARTESIAN_POINT('',(-23.,51.,-2.81668763803891E-15));
#498=CARTESIAN_POINT('Origin',(0.,51.,0.));
#499=CARTESIAN_POINT('Origin',(0.,51.,0.));
#500=CARTESIAN_POINT('Origin',(0.,46.,0.));
#501=CARTESIAN_POINT('',(43.,41.,0.));
#502=CARTESIAN_POINT('',(-43.,41.,-5.26598123633362E-15));
#503=CARTESIAN_POINT('Origin',(0.,41.,0.));
#504=CARTESIAN_POINT('Origin',(0.,41.,0.));
#505=CARTESIAN_POINT('',(-33.,46.,-4.04133443718626E-15));
#506=CARTESIAN_POINT('Origin',(0.,39.,0.));
#507=CARTESIAN_POINT('',(43.,37.,0.));
#508=CARTESIAN_POINT('',(-43.,37.,-5.26598123633362E-15));
#509=CARTESIAN_POINT('Origin',(0.,37.,0.));
#510=CARTESIAN_POINT('Origin',(0.,37.,0.));
#511=CARTESIAN_POINT('',(-43.,39.,-5.26598123633362E-15));
#512=CARTESIAN_POINT('Origin',(52.5,37.,0.));
#513=CARTESIAN_POINT('',(52.5,37.,0.));
#514=CARTESIAN_POINT('',(-52.5,37.,-6.4293956955236E-15));
#515=CARTESIAN_POINT('Origin',(0.,37.,0.));
#516=CARTESIAN_POINT('Origin',(0.,37.,0.));
#517=CARTESIAN_POINT('Origin',(0.,33.,0.));
#518=CARTESIAN_POINT('',(75.,29.,0.));
#519=CARTESIAN_POINT('',(-75.,29.,-9.18485099360515E-15));
#520=CARTESIAN_POINT('Origin',(0.,29.,0.));
#521=CARTESIAN_POINT('Origin',(0.,29.,0.));
#522=CARTESIAN_POINT('',(-63.75,33.,-7.80712334456438E-15));
#523=CARTESIAN_POINT('Origin',(0.,26.,0.));
#524=CARTESIAN_POINT('',(75.,23.,0.));
#525=CARTESIAN_POINT('',(-75.,23.,-9.18485099360515E-15));
#526=CARTESIAN_POINT('Origin',(0.,23.,0.));
#527=CARTESIAN_POINT('Origin',(0.,23.,0.));
#528=CARTESIAN_POINT('',(-75.,26.,-9.18485099360515E-15));
#529=CARTESIAN_POINT('Origin',(0.,21.25,0.));
#530=CARTESIAN_POINT('',(62.5,19.5,0.));
#531=CARTESIAN_POINT('',(-62.5,19.5,-7.65404249467096E-15));
#532=CARTESIAN_POINT('Origin',(0.,19.5,0.));
#533=CARTESIAN_POINT('Origin',(0.,19.5,0.));
#534=CARTESIAN_POINT('',(-68.75,21.25,-8.41944674413805E-15));
#535=CARTESIAN_POINT('Origin',(0.,17.75,0.));
#536=CARTESIAN_POINT('',(75.,16.,0.));
#537=CARTESIAN_POINT('',(-75.,16.,-9.18485099360515E-15));
#538=CARTESIAN_POINT('Origin',(0.,16.,0.));
#539=CARTESIAN_POINT('Origin',(0.,16.,0.));
#540=CARTESIAN_POINT('',(-68.75,17.75,-8.41944674413805E-15));
#541=CARTESIAN_POINT('Origin',(0.,13.,0.));
#542=CARTESIAN_POINT('',(75.,10.,0.));
#543=CARTESIAN_POINT('',(-75.,10.,-9.18485099360515E-15));
#544=CARTESIAN_POINT('Origin',(0.,10.,0.));
#545=CARTESIAN_POINT('Origin',(0.,10.,0.));
#546=CARTESIAN_POINT('',(-75.,13.,-9.18485099360515E-15));
#547=CARTESIAN_POINT('Origin',(0.,8.25,0.));
#548=CARTESIAN_POINT('',(62.5,6.5,0.));
#549=CARTESIAN_POINT('',(-62.5,6.5,-7.65404249467096E-15));
#550=CARTESIAN_POINT('Origin',(0.,6.5,0.));
#551=CARTESIAN_POINT('Origin',(0.,6.5,0.));
#552=CARTESIAN_POINT('',(-68.75,8.25,-8.41944674413805E-15));
#553=CARTESIAN_POINT('Origin',(0.,5.16999999999985,0.));
#554=CARTESIAN_POINT('',(72.,3.83999999999969,0.));
#555=CARTESIAN_POINT('',(-8.81745695386095E-15,3.83999999999969,72.));
#556=CARTESIAN_POINT('Origin',(0.,3.83999999999969,0.));
#557=CARTESIAN_POINT('',(-72.,3.83999999999969,-8.81745695386095E-15));
#558=CARTESIAN_POINT('Origin',(0.,3.83999999999969,0.));
#559=CARTESIAN_POINT('',(-67.25,5.16999999999985,-8.23574972426595E-15));
#560=CARTESIAN_POINT('Origin',(0.,3.83999999999969,0.));
#561=CARTESIAN_POINT('Origin',(0.,-0.844285443030912,0.));
#562=CARTESIAN_POINT('',(75.000000000005,-2.09186834521091E-12,0.));
#563=CARTESIAN_POINT('',(-9.18485099360577E-15,-2.09193773414995E-12,75.000000000005));
#564=CARTESIAN_POINT('Origin',(0.,-2.09186834521091E-12,0.));
#565=CARTESIAN_POINT('Origin',(0.,-2.09186834521091E-12,0.));
#566=CARTESIAN_POINT('Origin',(-8.56783898880729E-15,-0.844285443030912,
69.9617146329256));
#567=CARTESIAN_POINT('Origin',(0.,0.,0.));
#568=UNCERTAINTY_MEASURE_WITH_UNIT(LENGTH_MEASURE(0.01),#572,
'DISTANCE_ACCURACY_VALUE',
'Maximum model space distance between geometric entities at asserted c
onnectivities');
#569=UNCERTAINTY_MEASURE_WITH_UNIT(LENGTH_MEASURE(0.01),#572,
'DISTANCE_ACCURACY_VALUE',
'Maximum model space distance between geometric entities at asserted c
onnectivities');
#570=(
GEOMETRIC_REPRESENTATION_CONTEXT(3)
GLOBAL_UNCERTAINTY_ASSIGNED_CONTEXT((#568))
GLOBAL_UNIT_ASSIGNED_CONTEXT((#572,#575,#574))
REPRESENTATION_CONTEXT('','3D')
);
#571=(
GEOMETRIC_REPRESENTATION_CONTEXT(3)
GLOBAL_UNCERTAINTY_ASSIGNED_CONTEXT((#569))
GLOBAL_UNIT_ASSIGNED_CONTEXT((#572,#575,#574))
REPRESENTATION_CONTEXT('','3D')
);
#572=(
LENGTH_UNIT()
NAMED_UNIT(*)
SI_UNIT(.MILLI.,.METRE.)
);
#573=(
LENGTH_UNIT()
NAMED_UNIT(*)
SI_UNIT(.CENTI.,.METRE.)
);
#574=(
NAMED_UNIT(*)
SI_UNIT($,.STERADIAN.)
SOLID_ANGLE_UNIT()
);
#575=(
NAMED_UNIT(*)
PLANE_ANGLE_UNIT()
SI_UNIT($,.RADIAN.)
);
#576=SHAPE_DEFINITION_REPRESENTATION(#577,#578);
#577=PRODUCT_DEFINITION_SHAPE('',$,#580);
#578=SHAPE_REPRESENTATION('',(#319),#570);
#579=PRODUCT_DEFINITION_CONTEXT('part definition',#584,'design');
#580=PRODUCT_DEFINITION('3D_vfb150nit','3D_vfb150nit',#581,#579);
#581=PRODUCT_DEFINITION_FORMATION('',$,#586);
#582=PRODUCT_RELATED_PRODUCT_CATEGORY('3D_vfb150nit','3D_vfb150nit',(#586));
#583=APPLICATION_PROTOCOL_DEFINITION('international standard',
'automotive_design',2009,#584);
#584=APPLICATION_CONTEXT(
'Core Data for Automotive Mechanical Design Process');
#585=PRODUCT_CONTEXT('part definition',#584,'mechanical');
#586=PRODUCT('3D_vfb150nit','3D_vfb150nit',$,(#585));
#587=PRESENTATION_STYLE_ASSIGNMENT((#589));
#588=PRESENTATION_STYLE_ASSIGNMENT((#590));
#589=SURFACE_STYLE_USAGE(.BOTH.,#591);
#590=SURFACE_STYLE_USAGE(.BOTH.,#592);
#591=SURFACE_SIDE_STYLE('',(#593));
#592=SURFACE_SIDE_STYLE('',(#594));
#593=SURFACE_STYLE_FILL_AREA(#595);
#594=SURFACE_STYLE_FILL_AREA(#596);
#595=FILL_AREA_STYLE('',(#597));
#596=FILL_AREA_STYLE('',(#598));
#597=FILL_AREA_STYLE_COLOUR('',#599);
#598=FILL_AREA_STYLE_COLOUR('',#600);
#599=COLOUR_RGB('',0.32156862745098,0.32156862745098,0.32156862745098);
#600=COLOUR_RGB('',0.745098039215686,0.737254901960784,0.729411764705882);
ENDSEC;
END-ISO-10303-21;
