ISO-10303-21;
HEADER;
/* Generated by software containing ST-Developer
 * from STEP Tools, Inc. (www.steptools.com) 
 */

FILE_DESCRIPTION(
/* description */ (''),
/* implementation_level */ '2;1');

FILE_NAME(
/* name */ 
'Z:\\14-ALMACEN-3D\\WEB-2020\\grandes-cargas\\vml\\3D_vml50nit.stp',
/* time_stamp */ '2020-04-16T11:13:32+02:00',
/* author */ ('lmacia'),
/* organization */ (''),
/* preprocessor_version */ 'ST-DEVELOPER v17',
/* originating_system */ 'Autodesk Inventor 2019',
/* authorisation */ '');

FILE_SCHEMA (('AUTOMOTIVE_DESIGN { 1 0 10303 214 3 1 1 }'));
ENDSEC;

DATA;
#10=MECHANICAL_DESIGN_GEOMETRIC_PRESENTATION_REPRESENTATION('',(#194,#195,
#196,#197,#198,#199,#200,#201),#411);
#11=SHAPE_REPRESENTATION_RELATIONSHIP('SRR','None',#418,#12);
#12=ADVANCED_BREP_SHAPE_REPRESENTATION('',(#13),#410);
#13=MANIFOLD_SOLID_BREP('S\X\F3lido2',#214);
#14=TOROIDAL_SURFACE('',#254,23.4999999999927,0.500000000000004);
#15=TOROIDAL_SURFACE('',#258,24.0202198425977,4.54061158979198);
#16=FACE_BOUND('',#42,.T.);
#17=FACE_BOUND('',#50,.T.);
#18=FACE_BOUND('',#53,.T.);
#19=PLANE('',#241);
#20=PLANE('',#244);
#21=PLANE('',#251);
#22=PLANE('',#262);
#23=PLANE('',#268);
#24=CYLINDRICAL_SURFACE('',#238,4.283);
#25=CYLINDRICAL_SURFACE('',#245,25.);
#26=CYLINDRICAL_SURFACE('',#265,24.5);
#27=FACE_OUTER_BOUND('',#39,.T.);
#28=FACE_OUTER_BOUND('',#40,.T.);
#29=FACE_OUTER_BOUND('',#41,.T.);
#30=FACE_OUTER_BOUND('',#43,.T.);
#31=FACE_OUTER_BOUND('',#44,.T.);
#32=FACE_OUTER_BOUND('',#45,.T.);
#33=FACE_OUTER_BOUND('',#46,.T.);
#34=FACE_OUTER_BOUND('',#47,.T.);
#35=FACE_OUTER_BOUND('',#48,.T.);
#36=FACE_OUTER_BOUND('',#49,.T.);
#37=FACE_OUTER_BOUND('',#51,.T.);
#38=FACE_OUTER_BOUND('',#52,.T.);
#39=EDGE_LOOP('',(#136,#137,#138,#139,#140));
#40=EDGE_LOOP('',(#141,#142,#143,#144,#145,#146));
#41=EDGE_LOOP('',(#147,#148));
#42=EDGE_LOOP('',(#149));
#43=EDGE_LOOP('',(#150,#151));
#44=EDGE_LOOP('',(#152,#153,#154,#155,#156,#157));
#45=EDGE_LOOP('',(#158,#159,#160,#161,#162,#163));
#46=EDGE_LOOP('',(#164,#165));
#47=EDGE_LOOP('',(#166,#167,#168,#169,#170,#171));
#48=EDGE_LOOP('',(#172,#173,#174,#175,#176,#177));
#49=EDGE_LOOP('',(#178,#179));
#50=EDGE_LOOP('',(#180,#181));
#51=EDGE_LOOP('',(#182,#183,#184,#185,#186,#187));
#52=EDGE_LOOP('',(#188,#189));
#53=EDGE_LOOP('',(#190,#191));
#54=LINE('',#352,#59);
#55=LINE('',#360,#60);
#56=LINE('',#373,#61);
#57=LINE('',#378,#62);
#58=LINE('',#406,#63);
#59=VECTOR('',#275,4.533);
#60=VECTOR('',#286,4.283);
#61=VECTOR('',#301,25.);
#62=VECTOR('',#308,24.5);
#63=VECTOR('',#343,24.5);
#64=CIRCLE('',#235,4.283);
#65=CIRCLE('',#236,4.783);
#66=CIRCLE('',#237,4.283);
#67=CIRCLE('',#239,4.283);
#68=CIRCLE('',#240,4.283);
#69=CIRCLE('',#242,24.);
#70=CIRCLE('',#243,24.);
#71=CIRCLE('',#246,25.);
#72=CIRCLE('',#247,25.);
#73=CIRCLE('',#248,25.);
#74=CIRCLE('',#249,25.);
#75=CIRCLE('',#252,23.4999999999927);
#76=CIRCLE('',#253,23.4999999999927);
#77=CIRCLE('',#255,23.5175580077712);
#78=CIRCLE('',#256,23.5175580077712);
#79=CIRCLE('',#257,0.500000000000004);
#80=CIRCLE('',#259,20.0550634204807);
#81=CIRCLE('',#260,20.0550634204807);
#82=CIRCLE('',#261,4.54061158979198);
#83=CIRCLE('',#263,24.5);
#84=CIRCLE('',#264,24.5);
#85=CIRCLE('',#266,24.5);
#86=CIRCLE('',#267,24.5);
#87=VERTEX_POINT('',#348);
#88=VERTEX_POINT('',#349);
#89=VERTEX_POINT('',#351);
#90=VERTEX_POINT('',#356);
#91=VERTEX_POINT('',#357);
#92=VERTEX_POINT('',#362);
#93=VERTEX_POINT('',#363);
#94=VERTEX_POINT('',#368);
#95=VERTEX_POINT('',#369);
#96=VERTEX_POINT('',#372);
#97=VERTEX_POINT('',#374);
#98=VERTEX_POINT('',#380);
#99=VERTEX_POINT('',#381);
#100=VERTEX_POINT('',#385);
#101=VERTEX_POINT('',#386);
#102=VERTEX_POINT('',#391);
#103=VERTEX_POINT('',#392);
#104=VERTEX_POINT('',#397);
#105=VERTEX_POINT('',#398);
#106=VERTEX_POINT('',#402);
#107=VERTEX_POINT('',#403);
#108=EDGE_CURVE('',#87,#88,#64,.T.);
#109=EDGE_CURVE('',#88,#89,#54,.T.);
#110=EDGE_CURVE('',#89,#89,#65,.T.);
#111=EDGE_CURVE('',#88,#87,#66,.T.);
#112=EDGE_CURVE('',#90,#91,#67,.T.);
#113=EDGE_CURVE('',#91,#90,#68,.T.);
#114=EDGE_CURVE('',#91,#87,#55,.T.);
#115=EDGE_CURVE('',#92,#93,#69,.T.);
#116=EDGE_CURVE('',#93,#92,#70,.T.);
#117=EDGE_CURVE('',#94,#95,#71,.T.);
#118=EDGE_CURVE('',#95,#94,#72,.T.);
#119=EDGE_CURVE('',#95,#96,#56,.T.);
#120=EDGE_CURVE('',#96,#97,#73,.T.);
#121=EDGE_CURVE('',#97,#96,#74,.T.);
#122=EDGE_CURVE('',#95,#93,#57,.T.);
#123=EDGE_CURVE('',#98,#99,#75,.T.);
#124=EDGE_CURVE('',#99,#98,#76,.T.);
#125=EDGE_CURVE('',#100,#101,#77,.T.);
#126=EDGE_CURVE('',#101,#100,#78,.T.);
#127=EDGE_CURVE('',#101,#99,#79,.T.);
#128=EDGE_CURVE('',#102,#103,#80,.T.);
#129=EDGE_CURVE('',#103,#102,#81,.T.);
#130=EDGE_CURVE('',#103,#101,#82,.T.);
#131=EDGE_CURVE('',#104,#105,#83,.T.);
#132=EDGE_CURVE('',#105,#104,#84,.T.);
#133=EDGE_CURVE('',#106,#107,#85,.T.);
#134=EDGE_CURVE('',#107,#106,#86,.T.);
#135=EDGE_CURVE('',#107,#105,#58,.T.);
#136=ORIENTED_EDGE('',*,*,#108,.T.);
#137=ORIENTED_EDGE('',*,*,#109,.T.);
#138=ORIENTED_EDGE('',*,*,#110,.T.);
#139=ORIENTED_EDGE('',*,*,#109,.F.);
#140=ORIENTED_EDGE('',*,*,#111,.T.);
#141=ORIENTED_EDGE('',*,*,#112,.F.);
#142=ORIENTED_EDGE('',*,*,#113,.F.);
#143=ORIENTED_EDGE('',*,*,#114,.T.);
#144=ORIENTED_EDGE('',*,*,#111,.F.);
#145=ORIENTED_EDGE('',*,*,#108,.F.);
#146=ORIENTED_EDGE('',*,*,#114,.F.);
#147=ORIENTED_EDGE('',*,*,#115,.T.);
#148=ORIENTED_EDGE('',*,*,#116,.T.);
#149=ORIENTED_EDGE('',*,*,#110,.F.);
#150=ORIENTED_EDGE('',*,*,#112,.T.);
#151=ORIENTED_EDGE('',*,*,#113,.T.);
#152=ORIENTED_EDGE('',*,*,#117,.F.);
#153=ORIENTED_EDGE('',*,*,#118,.F.);
#154=ORIENTED_EDGE('',*,*,#119,.T.);
#155=ORIENTED_EDGE('',*,*,#120,.T.);
#156=ORIENTED_EDGE('',*,*,#121,.T.);
#157=ORIENTED_EDGE('',*,*,#119,.F.);
#158=ORIENTED_EDGE('',*,*,#117,.T.);
#159=ORIENTED_EDGE('',*,*,#122,.T.);
#160=ORIENTED_EDGE('',*,*,#115,.F.);
#161=ORIENTED_EDGE('',*,*,#116,.F.);
#162=ORIENTED_EDGE('',*,*,#122,.F.);
#163=ORIENTED_EDGE('',*,*,#118,.T.);
#164=ORIENTED_EDGE('',*,*,#123,.F.);
#165=ORIENTED_EDGE('',*,*,#124,.F.);
#166=ORIENTED_EDGE('',*,*,#125,.F.);
#167=ORIENTED_EDGE('',*,*,#126,.F.);
#168=ORIENTED_EDGE('',*,*,#127,.T.);
#169=ORIENTED_EDGE('',*,*,#124,.T.);
#170=ORIENTED_EDGE('',*,*,#123,.T.);
#171=ORIENTED_EDGE('',*,*,#127,.F.);
#172=ORIENTED_EDGE('',*,*,#128,.F.);
#173=ORIENTED_EDGE('',*,*,#129,.F.);
#174=ORIENTED_EDGE('',*,*,#130,.T.);
#175=ORIENTED_EDGE('',*,*,#126,.T.);
#176=ORIENTED_EDGE('',*,*,#125,.T.);
#177=ORIENTED_EDGE('',*,*,#130,.F.);
#178=ORIENTED_EDGE('',*,*,#131,.F.);
#179=ORIENTED_EDGE('',*,*,#132,.F.);
#180=ORIENTED_EDGE('',*,*,#128,.T.);
#181=ORIENTED_EDGE('',*,*,#129,.T.);
#182=ORIENTED_EDGE('',*,*,#133,.F.);
#183=ORIENTED_EDGE('',*,*,#134,.F.);
#184=ORIENTED_EDGE('',*,*,#135,.T.);
#185=ORIENTED_EDGE('',*,*,#132,.T.);
#186=ORIENTED_EDGE('',*,*,#131,.T.);
#187=ORIENTED_EDGE('',*,*,#135,.F.);
#188=ORIENTED_EDGE('',*,*,#121,.F.);
#189=ORIENTED_EDGE('',*,*,#120,.F.);
#190=ORIENTED_EDGE('',*,*,#133,.T.);
#191=ORIENTED_EDGE('',*,*,#134,.T.);
#192=CONICAL_SURFACE('',#234,4.533,0.785398163397448);
#193=CONICAL_SURFACE('',#250,24.5,0.785398163397674);
#194=STYLED_ITEM('',(#428),#202);
#195=STYLED_ITEM('',(#428),#203);
#196=STYLED_ITEM('',(#428),#204);
#197=STYLED_ITEM('',(#428),#205);
#198=STYLED_ITEM('',(#428),#206);
#199=STYLED_ITEM('',(#428),#207);
#200=STYLED_ITEM('',(#428),#213);
#201=STYLED_ITEM('',(#427),#13);
#202=ADVANCED_FACE('',(#27),#192,.F.);
#203=ADVANCED_FACE('',(#28),#24,.F.);
#204=ADVANCED_FACE('',(#29,#16),#19,.T.);
#205=ADVANCED_FACE('',(#30),#20,.T.);
#206=ADVANCED_FACE('',(#31),#25,.T.);
#207=ADVANCED_FACE('',(#32),#193,.T.);
#208=ADVANCED_FACE('',(#33),#21,.T.);
#209=ADVANCED_FACE('',(#34),#14,.T.);
#210=ADVANCED_FACE('',(#35),#15,.F.);
#211=ADVANCED_FACE('',(#36,#17),#22,.T.);
#212=ADVANCED_FACE('',(#37),#26,.T.);
#213=ADVANCED_FACE('',(#38,#18),#23,.T.);
#214=CLOSED_SHELL('',(#202,#203,#204,#205,#206,#207,#208,#209,#210,#211,
#212,#213));
#215=DERIVED_UNIT_ELEMENT(#217,1.);
#216=DERIVED_UNIT_ELEMENT(#413,3.);
#217=(
MASS_UNIT()
NAMED_UNIT(*)
SI_UNIT($,.GRAM.)
);
#218=DERIVED_UNIT((#215,#216));
#219=MEASURE_REPRESENTATION_ITEM('density measure',
POSITIVE_RATIO_MEASURE(1.),#218);
#220=PROPERTY_DEFINITION_REPRESENTATION(#225,#222);
#221=PROPERTY_DEFINITION_REPRESENTATION(#226,#223);
#222=REPRESENTATION('material name',(#224),#410);
#223=REPRESENTATION('density',(#219),#410);
#224=DESCRIPTIVE_REPRESENTATION_ITEM('Gen\X\E9rico','Gen\X\E9rico');
#225=PROPERTY_DEFINITION('material property','material name',#420);
#226=PROPERTY_DEFINITION('material property','density of part',#420);
#227=DATE_TIME_ROLE('creation_date');
#228=APPLIED_DATE_AND_TIME_ASSIGNMENT(#229,#227,(#420));
#229=DATE_AND_TIME(#230,#231);
#230=CALENDAR_DATE(2019,20,9);
#231=LOCAL_TIME(11,22,34.,#232);
#232=COORDINATED_UNIVERSAL_TIME_OFFSET(0,0,.BEHIND.);
#233=AXIS2_PLACEMENT_3D('placement',#346,#269,#270);
#234=AXIS2_PLACEMENT_3D('',#347,#271,#272);
#235=AXIS2_PLACEMENT_3D('',#350,#273,#274);
#236=AXIS2_PLACEMENT_3D('',#353,#276,#277);
#237=AXIS2_PLACEMENT_3D('',#354,#278,#279);
#238=AXIS2_PLACEMENT_3D('',#355,#280,#281);
#239=AXIS2_PLACEMENT_3D('',#358,#282,#283);
#240=AXIS2_PLACEMENT_3D('',#359,#284,#285);
#241=AXIS2_PLACEMENT_3D('',#361,#287,#288);
#242=AXIS2_PLACEMENT_3D('',#364,#289,#290);
#243=AXIS2_PLACEMENT_3D('',#365,#291,#292);
#244=AXIS2_PLACEMENT_3D('',#366,#293,#294);
#245=AXIS2_PLACEMENT_3D('',#367,#295,#296);
#246=AXIS2_PLACEMENT_3D('',#370,#297,#298);
#247=AXIS2_PLACEMENT_3D('',#371,#299,#300);
#248=AXIS2_PLACEMENT_3D('',#375,#302,#303);
#249=AXIS2_PLACEMENT_3D('',#376,#304,#305);
#250=AXIS2_PLACEMENT_3D('',#377,#306,#307);
#251=AXIS2_PLACEMENT_3D('',#379,#309,#310);
#252=AXIS2_PLACEMENT_3D('',#382,#311,#312);
#253=AXIS2_PLACEMENT_3D('',#383,#313,#314);
#254=AXIS2_PLACEMENT_3D('',#384,#315,#316);
#255=AXIS2_PLACEMENT_3D('',#387,#317,#318);
#256=AXIS2_PLACEMENT_3D('',#388,#319,#320);
#257=AXIS2_PLACEMENT_3D('',#389,#321,#322);
#258=AXIS2_PLACEMENT_3D('',#390,#323,#324);
#259=AXIS2_PLACEMENT_3D('',#393,#325,#326);
#260=AXIS2_PLACEMENT_3D('',#394,#327,#328);
#261=AXIS2_PLACEMENT_3D('',#395,#329,#330);
#262=AXIS2_PLACEMENT_3D('',#396,#331,#332);
#263=AXIS2_PLACEMENT_3D('',#399,#333,#334);
#264=AXIS2_PLACEMENT_3D('',#400,#335,#336);
#265=AXIS2_PLACEMENT_3D('',#401,#337,#338);
#266=AXIS2_PLACEMENT_3D('',#404,#339,#340);
#267=AXIS2_PLACEMENT_3D('',#405,#341,#342);
#268=AXIS2_PLACEMENT_3D('',#407,#344,#345);
#269=DIRECTION('axis',(0.,0.,1.));
#270=DIRECTION('refdir',(1.,0.,0.));
#271=DIRECTION('center_axis',(0.,1.,0.));
#272=DIRECTION('ref_axis',(-1.,0.,0.));
#273=DIRECTION('center_axis',(0.,-1.,0.));
#274=DIRECTION('ref_axis',(-1.,0.,0.));
#275=DIRECTION('',(0.707106781186547,0.707106781186548,-8.65956056235493E-17));
#276=DIRECTION('center_axis',(0.,1.,0.));
#277=DIRECTION('ref_axis',(-1.,0.,0.));
#278=DIRECTION('center_axis',(0.,-1.,0.));
#279=DIRECTION('ref_axis',(-1.,0.,0.));
#280=DIRECTION('center_axis',(0.,1.,0.));
#281=DIRECTION('ref_axis',(1.,0.,0.));
#282=DIRECTION('center_axis',(0.,1.,0.));
#283=DIRECTION('ref_axis',(1.,0.,0.));
#284=DIRECTION('center_axis',(0.,1.,0.));
#285=DIRECTION('ref_axis',(1.,0.,0.));
#286=DIRECTION('',(0.,1.,0.));
#287=DIRECTION('center_axis',(0.,1.,0.));
#288=DIRECTION('ref_axis',(0.,0.,1.));
#289=DIRECTION('center_axis',(0.,1.,0.));
#290=DIRECTION('ref_axis',(1.,0.,0.));
#291=DIRECTION('center_axis',(0.,1.,0.));
#292=DIRECTION('ref_axis',(1.,0.,0.));
#293=DIRECTION('center_axis',(0.,1.,0.));
#294=DIRECTION('ref_axis',(1.,0.,0.));
#295=DIRECTION('center_axis',(0.,1.,0.));
#296=DIRECTION('ref_axis',(-1.,0.,0.));
#297=DIRECTION('center_axis',(0.,1.,0.));
#298=DIRECTION('ref_axis',(1.,0.,0.));
#299=DIRECTION('center_axis',(0.,1.,0.));
#300=DIRECTION('ref_axis',(1.,0.,0.));
#301=DIRECTION('',(0.,-1.,0.));
#302=DIRECTION('center_axis',(0.,1.,0.));
#303=DIRECTION('ref_axis',(1.,0.,0.));
#304=DIRECTION('center_axis',(0.,1.,0.));
#305=DIRECTION('ref_axis',(1.,0.,0.));
#306=DIRECTION('center_axis',(0.,-1.,0.));
#307=DIRECTION('ref_axis',(-1.,0.,0.));
#308=DIRECTION('',(-0.707106781186707,0.707106781186388,-8.65956056235689E-17));
#309=DIRECTION('center_axis',(0.,-1.,0.));
#310=DIRECTION('ref_axis',(0.,0.,-1.));
#311=DIRECTION('center_axis',(0.,1.,0.));
#312=DIRECTION('ref_axis',(1.,0.,0.));
#313=DIRECTION('center_axis',(0.,1.,0.));
#314=DIRECTION('ref_axis',(1.,0.,0.));
#315=DIRECTION('center_axis',(0.,1.,0.));
#316=DIRECTION('ref_axis',(0.,0.,1.));
#317=DIRECTION('center_axis',(0.,1.,0.));
#318=DIRECTION('ref_axis',(1.,0.,0.));
#319=DIRECTION('center_axis',(0.,1.,0.));
#320=DIRECTION('ref_axis',(1.,0.,0.));
#321=DIRECTION('center_axis',(-1.,0.,1.22464679914735E-16));
#322=DIRECTION('ref_axis',(-1.22464679914735E-16,0.,-1.));
#323=DIRECTION('center_axis',(0.,1.,0.));
#324=DIRECTION('ref_axis',(0.,0.,1.));
#325=DIRECTION('center_axis',(0.,1.,0.));
#326=DIRECTION('ref_axis',(1.,0.,0.));
#327=DIRECTION('center_axis',(0.,1.,0.));
#328=DIRECTION('ref_axis',(1.,0.,0.));
#329=DIRECTION('center_axis',(1.,0.,-1.22464679914735E-16));
#330=DIRECTION('ref_axis',(-1.22464679914735E-16,0.,-1.));
#331=DIRECTION('center_axis',(0.,-1.,0.));
#332=DIRECTION('ref_axis',(0.,0.,-1.));
#333=DIRECTION('center_axis',(0.,1.,0.));
#334=DIRECTION('ref_axis',(1.,0.,0.));
#335=DIRECTION('center_axis',(0.,1.,0.));
#336=DIRECTION('ref_axis',(1.,0.,0.));
#337=DIRECTION('center_axis',(0.,1.,0.));
#338=DIRECTION('ref_axis',(-1.,0.,0.));
#339=DIRECTION('center_axis',(0.,1.,0.));
#340=DIRECTION('ref_axis',(1.,0.,0.));
#341=DIRECTION('center_axis',(0.,1.,0.));
#342=DIRECTION('ref_axis',(1.,0.,0.));
#343=DIRECTION('',(0.,-1.,0.));
#344=DIRECTION('center_axis',(0.,-1.,0.));
#345=DIRECTION('ref_axis',(0.,0.,-1.));
#346=CARTESIAN_POINT('',(0.,0.,0.));
#347=CARTESIAN_POINT('Origin',(0.,16.9499999999998,0.));
#348=CARTESIAN_POINT('',(-4.283,16.6999999999998,5.24516224074811E-16));
#349=CARTESIAN_POINT('',(4.283,16.6999999999998,-5.24516224074811E-16));
#350=CARTESIAN_POINT('Origin',(0.,16.6999999999998,0.));
#351=CARTESIAN_POINT('',(4.783,17.1999999999998,-5.85748564032179E-16));
#352=CARTESIAN_POINT('',(4.533,16.9499999999998,-5.55132394053495E-16));
#353=CARTESIAN_POINT('Origin',(0.,17.1999999999998,0.));
#354=CARTESIAN_POINT('Origin',(0.,16.6999999999998,0.));
#355=CARTESIAN_POINT('Origin',(0.,14.6999999999998,0.));
#356=CARTESIAN_POINT('',(4.283,12.1999999999998,0.));
#357=CARTESIAN_POINT('',(-4.283,12.1999999999998,5.24516224074811E-16));
#358=CARTESIAN_POINT('Origin',(0.,12.1999999999998,0.));
#359=CARTESIAN_POINT('Origin',(0.,12.1999999999998,0.));
#360=CARTESIAN_POINT('',(-4.283,14.6999999999998,5.24516224074811E-16));
#361=CARTESIAN_POINT('Origin',(0.,17.1999999999998,0.));
#362=CARTESIAN_POINT('',(-24.,17.1999999999998,0.));
#363=CARTESIAN_POINT('',(24.,17.1999999999998,2.93915231795365E-15));
#364=CARTESIAN_POINT('Origin',(0.,17.1999999999998,0.));
#365=CARTESIAN_POINT('Origin',(0.,17.1999999999998,0.));
#366=CARTESIAN_POINT('Origin',(0.,12.1999999999998,0.));
#367=CARTESIAN_POINT('Origin',(0.,13.0999999999999,0.));
#368=CARTESIAN_POINT('',(-25.,16.2000000000003,0.));
#369=CARTESIAN_POINT('',(25.,16.2000000000003,-3.06161699786838E-15));
#370=CARTESIAN_POINT('Origin',(0.,16.2000000000003,0.));
#371=CARTESIAN_POINT('Origin',(0.,16.2000000000003,0.));
#372=CARTESIAN_POINT('',(25.,9.99999999999955,-3.06161699786838E-15));
#373=CARTESIAN_POINT('',(25.,13.0999999999999,-3.06161699786838E-15));
#374=CARTESIAN_POINT('',(-25.,9.99999999999955,0.));
#375=CARTESIAN_POINT('Origin',(0.,9.99999999999955,0.));
#376=CARTESIAN_POINT('Origin',(0.,9.99999999999955,0.));
#377=CARTESIAN_POINT('Origin',(0.,16.7,0.));
#378=CARTESIAN_POINT('',(24.5,16.7,3.00038465791102E-15));
#379=CARTESIAN_POINT('Origin',(-23.4999999999927,-4.21884749357559E-15,
0.));
#380=CARTESIAN_POINT('',(-23.4999999999927,-4.21884749357559E-15,0.));
#381=CARTESIAN_POINT('',(-2.87791997799539E-15,-4.44089209850063E-15,-23.4999999999927));
#382=CARTESIAN_POINT('Origin',(0.,-4.44089209850063E-15,0.));
#383=CARTESIAN_POINT('Origin',(0.,-4.44089209850063E-15,0.));
#384=CARTESIAN_POINT('Origin',(0.,0.5,0.));
#385=CARTESIAN_POINT('',(-23.5175580077712,0.999691621265059,0.));
#386=CARTESIAN_POINT('',(-2.88007021379792E-15,0.999691621265059,-23.5175580077712));
#387=CARTESIAN_POINT('Origin',(0.,0.999691621265059,0.));
#388=CARTESIAN_POINT('Origin',(0.,0.999691621265059,0.));
#389=CARTESIAN_POINT('Origin',(-2.87791997799539E-15,0.5,-23.4999999999927));
#390=CARTESIAN_POINT('Origin',(0.,5.51239421385435,0.));
#391=CARTESIAN_POINT('',(-20.0550634204807,3.29999999999973,0.));
#392=CARTESIAN_POINT('',(-2.45603692245889E-15,3.29999999999973,-20.0550634204807));
#393=CARTESIAN_POINT('Origin',(0.,3.29999999999973,0.));
#394=CARTESIAN_POINT('Origin',(0.,3.29999999999973,0.));
#395=CARTESIAN_POINT('Origin',(-2.9416285345053E-15,5.51239421385435,-24.0202198425977));
#396=CARTESIAN_POINT('Origin',(-24.5,3.29999999999973,0.));
#397=CARTESIAN_POINT('',(-24.5,3.29999999999973,0.));
#398=CARTESIAN_POINT('',(24.5,3.29999999999973,-3.00038465791102E-15));
#399=CARTESIAN_POINT('Origin',(0.,3.29999999999973,0.));
#400=CARTESIAN_POINT('Origin',(0.,3.29999999999973,0.));
#401=CARTESIAN_POINT('Origin',(0.,6.64999999999964,0.));
#402=CARTESIAN_POINT('',(-24.5,9.99999999999955,0.));
#403=CARTESIAN_POINT('',(24.5,9.99999999999955,-3.00038465791102E-15));
#404=CARTESIAN_POINT('Origin',(0.,9.99999999999955,0.));
#405=CARTESIAN_POINT('Origin',(0.,9.99999999999955,0.));
#406=CARTESIAN_POINT('',(24.5,6.64999999999964,-3.00038465791102E-15));
#407=CARTESIAN_POINT('Origin',(-25.,9.99999999999955,0.));
#408=UNCERTAINTY_MEASURE_WITH_UNIT(LENGTH_MEASURE(0.01),#412,
'DISTANCE_ACCURACY_VALUE',
'Maximum model space distance between geometric entities at asserted c
onnectivities');
#409=UNCERTAINTY_MEASURE_WITH_UNIT(LENGTH_MEASURE(0.01),#412,
'DISTANCE_ACCURACY_VALUE',
'Maximum model space distance between geometric entities at asserted c
onnectivities');
#410=(
GEOMETRIC_REPRESENTATION_CONTEXT(3)
GLOBAL_UNCERTAINTY_ASSIGNED_CONTEXT((#408))
GLOBAL_UNIT_ASSIGNED_CONTEXT((#412,#415,#414))
REPRESENTATION_CONTEXT('','3D')
);
#411=(
GEOMETRIC_REPRESENTATION_CONTEXT(3)
GLOBAL_UNCERTAINTY_ASSIGNED_CONTEXT((#409))
GLOBAL_UNIT_ASSIGNED_CONTEXT((#412,#415,#414))
REPRESENTATION_CONTEXT('','3D')
);
#412=(
LENGTH_UNIT()
NAMED_UNIT(*)
SI_UNIT(.MILLI.,.METRE.)
);
#413=(
LENGTH_UNIT()
NAMED_UNIT(*)
SI_UNIT(.CENTI.,.METRE.)
);
#414=(
NAMED_UNIT(*)
SI_UNIT($,.STERADIAN.)
SOLID_ANGLE_UNIT()
);
#415=(
NAMED_UNIT(*)
PLANE_ANGLE_UNIT()
SI_UNIT($,.RADIAN.)
);
#416=SHAPE_DEFINITION_REPRESENTATION(#417,#418);
#417=PRODUCT_DEFINITION_SHAPE('',$,#420);
#418=SHAPE_REPRESENTATION('',(#233),#410);
#419=PRODUCT_DEFINITION_CONTEXT('part definition',#424,'design');
#420=PRODUCT_DEFINITION('3D_vml50','3D_vml50',#421,#419);
#421=PRODUCT_DEFINITION_FORMATION('',$,#426);
#422=PRODUCT_RELATED_PRODUCT_CATEGORY('3D_vml50','3D_vml50',(#426));
#423=APPLICATION_PROTOCOL_DEFINITION('international standard',
'automotive_design',2009,#424);
#424=APPLICATION_CONTEXT(
'Core Data for Automotive Mechanical Design Process');
#425=PRODUCT_CONTEXT('part definition',#424,'mechanical');
#426=PRODUCT('3D_vml50','3D_vml50',$,(#425));
#427=PRESENTATION_STYLE_ASSIGNMENT((#429));
#428=PRESENTATION_STYLE_ASSIGNMENT((#430));
#429=SURFACE_STYLE_USAGE(.BOTH.,#431);
#430=SURFACE_STYLE_USAGE(.BOTH.,#432);
#431=SURFACE_SIDE_STYLE('',(#433));
#432=SURFACE_SIDE_STYLE('',(#434));
#433=SURFACE_STYLE_FILL_AREA(#435);
#434=SURFACE_STYLE_FILL_AREA(#436);
#435=FILL_AREA_STYLE('',(#437));
#436=FILL_AREA_STYLE('',(#438));
#437=FILL_AREA_STYLE_COLOUR('',#439);
#438=FILL_AREA_STYLE_COLOUR('',#440);
#439=COLOUR_RGB('',0.32156862745098,0.32156862745098,0.32156862745098);
#440=COLOUR_RGB('',0.,0.486274509803922,0.690196078431373);
ENDSEC;
END-ISO-10303-21;
