ISO-10303-21;
HEADER;
/* Generated by software containing ST-Developer
 * from STEP Tools, Inc. (www.steptools.com) 
 */

FILE_DESCRIPTION(
/* description */ (''),
/* implementation_level */ '2;1');

FILE_NAME(
/* name */ 'C:\\Users\\enginyeria\\Desktop\\RENDERS\\vpd110epdm20.stp',

/* time_stamp */ '2022-01-07T12:28:38+01:00',
/* author */ ('enginyeria'),
/* organization */ (''),
/* preprocessor_version */ 'ST-DEVELOPER v17.2',
/* originating_system */ 'Autodesk Inventor 2019',
/* authorisation */ '');

FILE_SCHEMA (('AUTOMOTIVE_DESIGN { 1 0 10303 214 3 1 1 }'));
ENDSEC;

DATA;
#10=MECHANICAL_DESIGN_GEOMETRIC_PRESENTATION_REPRESENTATION('',(#232,#233,
#234,#235,#236,#237,#238,#239,#240,#241,#242,#243,#244,#245),#485);
#11=SHAPE_REPRESENTATION_RELATIONSHIP('SRR','None',#492,#12);
#12=ADVANCED_BREP_SHAPE_REPRESENTATION('',(#13),#484);
#13=MANIFOLD_SOLID_BREP('S\X\F3lido1',#260);
#14=FACE_BOUND('',#43,.T.);
#15=FACE_BOUND('',#47,.T.);
#16=FACE_BOUND('',#54,.T.);
#17=PLANE('',#287);
#18=PLANE('',#290);
#19=PLANE('',#296);
#20=PLANE('',#302);
#21=PLANE('',#312);
#22=CYLINDRICAL_SURFACE('',#284,7.475);
#23=CYLINDRICAL_SURFACE('',#299,57.5000000000001);
#24=CYLINDRICAL_SURFACE('',#306,17.4999999999997);
#25=CYLINDRICAL_SURFACE('',#318,65.);
#26=FACE_OUTER_BOUND('',#40,.T.);
#27=FACE_OUTER_BOUND('',#41,.T.);
#28=FACE_OUTER_BOUND('',#42,.T.);
#29=FACE_OUTER_BOUND('',#44,.T.);
#30=FACE_OUTER_BOUND('',#45,.T.);
#31=FACE_OUTER_BOUND('',#46,.T.);
#32=FACE_OUTER_BOUND('',#48,.T.);
#33=FACE_OUTER_BOUND('',#49,.T.);
#34=FACE_OUTER_BOUND('',#50,.T.);
#35=FACE_OUTER_BOUND('',#51,.T.);
#36=FACE_OUTER_BOUND('',#52,.T.);
#37=FACE_OUTER_BOUND('',#53,.T.);
#38=FACE_OUTER_BOUND('',#55,.T.);
#39=FACE_OUTER_BOUND('',#56,.T.);
#40=EDGE_LOOP('',(#159,#160,#161,#162,#163));
#41=EDGE_LOOP('',(#164,#165,#166,#167,#168,#169));
#42=EDGE_LOOP('',(#170,#171));
#43=EDGE_LOOP('',(#172));
#44=EDGE_LOOP('',(#173,#174));
#45=EDGE_LOOP('',(#175,#176,#177,#178,#179,#180));
#46=EDGE_LOOP('',(#181,#182));
#47=EDGE_LOOP('',(#183,#184));
#48=EDGE_LOOP('',(#185,#186,#187,#188,#189,#190));
#49=EDGE_LOOP('',(#191,#192));
#50=EDGE_LOOP('',(#193,#194,#195,#196,#197,#198));
#51=EDGE_LOOP('',(#199,#200,#201,#202,#203,#204));
#52=EDGE_LOOP('',(#205,#206,#207,#208,#209,#210));
#53=EDGE_LOOP('',(#211,#212));
#54=EDGE_LOOP('',(#213,#214));
#55=EDGE_LOOP('',(#215,#216,#217,#218,#219,#220));
#56=EDGE_LOOP('',(#221,#222,#223,#224,#225,#226));
#57=LINE('',#414,#66);
#58=LINE('',#422,#67);
#59=LINE('',#434,#68);
#60=LINE('',#449,#69);
#61=LINE('',#456,#70);
#62=LINE('',#462,#71);
#63=LINE('',#468,#72);
#64=LINE('',#479,#73);
#65=LINE('',#481,#74);
#66=VECTOR('',#325,7.975);
#67=VECTOR('',#336,7.475);
#68=VECTOR('',#349,64.8500000000001);
#69=VECTOR('',#368,57.5000000000001);
#70=VECTOR('',#377,16.9999999999995);
#71=VECTOR('',#384,17.4999999999997);
#72=VECTOR('',#391,23.195967481564);
#73=VECTOR('',#404,61.4999999999998);
#74=VECTOR('',#407,65.);
#75=CIRCLE('',#281,7.475);
#76=CIRCLE('',#282,8.475);
#77=CIRCLE('',#283,7.475);
#78=CIRCLE('',#285,7.475);
#79=CIRCLE('',#286,7.475);
#80=CIRCLE('',#288,16.4999999999993);
#81=CIRCLE('',#289,16.4999999999993);
#82=CIRCLE('',#292,65.0000000000001);
#83=CIRCLE('',#293,64.7000000000001);
#84=CIRCLE('',#294,64.7000000000001);
#85=CIRCLE('',#295,65.0000000000001);
#86=CIRCLE('',#297,57.5000000000002);
#87=CIRCLE('',#298,57.5000000000002);
#88=CIRCLE('',#300,57.5);
#89=CIRCLE('',#301,57.5);
#90=CIRCLE('',#304,17.4999999999997);
#91=CIRCLE('',#305,17.4999999999997);
#92=CIRCLE('',#307,17.4999999999997);
#93=CIRCLE('',#308,17.4999999999997);
#94=CIRCLE('',#310,28.8919349631284);
#95=CIRCLE('',#311,28.8919349631284);
#96=CIRCLE('',#313,57.9999999999997);
#97=CIRCLE('',#314,57.9999999999997);
#98=CIRCLE('',#316,64.9999999999999);
#99=CIRCLE('',#317,64.9999999999999);
#100=VERTEX_POINT('',#410);
#101=VERTEX_POINT('',#411);
#102=VERTEX_POINT('',#413);
#103=VERTEX_POINT('',#418);
#104=VERTEX_POINT('',#419);
#105=VERTEX_POINT('',#424);
#106=VERTEX_POINT('',#425);
#107=VERTEX_POINT('',#430);
#108=VERTEX_POINT('',#431);
#109=VERTEX_POINT('',#433);
#110=VERTEX_POINT('',#435);
#111=VERTEX_POINT('',#440);
#112=VERTEX_POINT('',#441);
#113=VERTEX_POINT('',#445);
#114=VERTEX_POINT('',#446);
#115=VERTEX_POINT('',#452);
#116=VERTEX_POINT('',#453);
#117=VERTEX_POINT('',#458);
#118=VERTEX_POINT('',#459);
#119=VERTEX_POINT('',#464);
#120=VERTEX_POINT('',#465);
#121=VERTEX_POINT('',#470);
#122=VERTEX_POINT('',#471);
#123=VERTEX_POINT('',#475);
#124=VERTEX_POINT('',#476);
#125=EDGE_CURVE('',#100,#101,#75,.T.);
#126=EDGE_CURVE('',#101,#102,#57,.T.);
#127=EDGE_CURVE('',#102,#102,#76,.T.);
#128=EDGE_CURVE('',#101,#100,#77,.T.);
#129=EDGE_CURVE('',#103,#104,#78,.T.);
#130=EDGE_CURVE('',#104,#103,#79,.T.);
#131=EDGE_CURVE('',#104,#100,#58,.T.);
#132=EDGE_CURVE('',#105,#106,#80,.T.);
#133=EDGE_CURVE('',#106,#105,#81,.T.);
#134=EDGE_CURVE('',#107,#108,#82,.T.);
#135=EDGE_CURVE('',#108,#109,#59,.T.);
#136=EDGE_CURVE('',#110,#109,#83,.T.);
#137=EDGE_CURVE('',#109,#110,#84,.T.);
#138=EDGE_CURVE('',#108,#107,#85,.T.);
#139=EDGE_CURVE('',#111,#112,#86,.T.);
#140=EDGE_CURVE('',#112,#111,#87,.T.);
#141=EDGE_CURVE('',#113,#114,#88,.T.);
#142=EDGE_CURVE('',#114,#113,#89,.T.);
#143=EDGE_CURVE('',#114,#112,#60,.T.);
#144=EDGE_CURVE('',#115,#116,#90,.T.);
#145=EDGE_CURVE('',#116,#115,#91,.T.);
#146=EDGE_CURVE('',#116,#106,#61,.T.);
#147=EDGE_CURVE('',#117,#118,#92,.T.);
#148=EDGE_CURVE('',#118,#117,#93,.T.);
#149=EDGE_CURVE('',#118,#116,#62,.T.);
#150=EDGE_CURVE('',#119,#120,#94,.T.);
#151=EDGE_CURVE('',#120,#119,#95,.T.);
#152=EDGE_CURVE('',#120,#118,#63,.T.);
#153=EDGE_CURVE('',#121,#122,#96,.T.);
#154=EDGE_CURVE('',#122,#121,#97,.T.);
#155=EDGE_CURVE('',#123,#124,#98,.T.);
#156=EDGE_CURVE('',#124,#123,#99,.T.);
#157=EDGE_CURVE('',#124,#122,#64,.T.);
#158=EDGE_CURVE('',#108,#124,#65,.T.);
#159=ORIENTED_EDGE('',*,*,#125,.T.);
#160=ORIENTED_EDGE('',*,*,#126,.T.);
#161=ORIENTED_EDGE('',*,*,#127,.T.);
#162=ORIENTED_EDGE('',*,*,#126,.F.);
#163=ORIENTED_EDGE('',*,*,#128,.T.);
#164=ORIENTED_EDGE('',*,*,#129,.F.);
#165=ORIENTED_EDGE('',*,*,#130,.F.);
#166=ORIENTED_EDGE('',*,*,#131,.T.);
#167=ORIENTED_EDGE('',*,*,#128,.F.);
#168=ORIENTED_EDGE('',*,*,#125,.F.);
#169=ORIENTED_EDGE('',*,*,#131,.F.);
#170=ORIENTED_EDGE('',*,*,#132,.F.);
#171=ORIENTED_EDGE('',*,*,#133,.F.);
#172=ORIENTED_EDGE('',*,*,#127,.F.);
#173=ORIENTED_EDGE('',*,*,#129,.T.);
#174=ORIENTED_EDGE('',*,*,#130,.T.);
#175=ORIENTED_EDGE('',*,*,#134,.T.);
#176=ORIENTED_EDGE('',*,*,#135,.T.);
#177=ORIENTED_EDGE('',*,*,#136,.F.);
#178=ORIENTED_EDGE('',*,*,#137,.F.);
#179=ORIENTED_EDGE('',*,*,#135,.F.);
#180=ORIENTED_EDGE('',*,*,#138,.T.);
#181=ORIENTED_EDGE('',*,*,#136,.T.);
#182=ORIENTED_EDGE('',*,*,#137,.T.);
#183=ORIENTED_EDGE('',*,*,#139,.F.);
#184=ORIENTED_EDGE('',*,*,#140,.F.);
#185=ORIENTED_EDGE('',*,*,#141,.F.);
#186=ORIENTED_EDGE('',*,*,#142,.F.);
#187=ORIENTED_EDGE('',*,*,#143,.T.);
#188=ORIENTED_EDGE('',*,*,#140,.T.);
#189=ORIENTED_EDGE('',*,*,#139,.T.);
#190=ORIENTED_EDGE('',*,*,#143,.F.);
#191=ORIENTED_EDGE('',*,*,#141,.T.);
#192=ORIENTED_EDGE('',*,*,#142,.T.);
#193=ORIENTED_EDGE('',*,*,#144,.F.);
#194=ORIENTED_EDGE('',*,*,#145,.F.);
#195=ORIENTED_EDGE('',*,*,#146,.T.);
#196=ORIENTED_EDGE('',*,*,#133,.T.);
#197=ORIENTED_EDGE('',*,*,#132,.T.);
#198=ORIENTED_EDGE('',*,*,#146,.F.);
#199=ORIENTED_EDGE('',*,*,#147,.F.);
#200=ORIENTED_EDGE('',*,*,#148,.F.);
#201=ORIENTED_EDGE('',*,*,#149,.T.);
#202=ORIENTED_EDGE('',*,*,#145,.T.);
#203=ORIENTED_EDGE('',*,*,#144,.T.);
#204=ORIENTED_EDGE('',*,*,#149,.F.);
#205=ORIENTED_EDGE('',*,*,#150,.F.);
#206=ORIENTED_EDGE('',*,*,#151,.F.);
#207=ORIENTED_EDGE('',*,*,#152,.T.);
#208=ORIENTED_EDGE('',*,*,#148,.T.);
#209=ORIENTED_EDGE('',*,*,#147,.T.);
#210=ORIENTED_EDGE('',*,*,#152,.F.);
#211=ORIENTED_EDGE('',*,*,#153,.F.);
#212=ORIENTED_EDGE('',*,*,#154,.F.);
#213=ORIENTED_EDGE('',*,*,#150,.T.);
#214=ORIENTED_EDGE('',*,*,#151,.T.);
#215=ORIENTED_EDGE('',*,*,#155,.F.);
#216=ORIENTED_EDGE('',*,*,#156,.F.);
#217=ORIENTED_EDGE('',*,*,#157,.T.);
#218=ORIENTED_EDGE('',*,*,#154,.T.);
#219=ORIENTED_EDGE('',*,*,#153,.T.);
#220=ORIENTED_EDGE('',*,*,#157,.F.);
#221=ORIENTED_EDGE('',*,*,#134,.F.);
#222=ORIENTED_EDGE('',*,*,#138,.F.);
#223=ORIENTED_EDGE('',*,*,#158,.T.);
#224=ORIENTED_EDGE('',*,*,#156,.T.);
#225=ORIENTED_EDGE('',*,*,#155,.T.);
#226=ORIENTED_EDGE('',*,*,#158,.F.);
#227=CONICAL_SURFACE('',#280,7.975,0.785398163397455);
#228=CONICAL_SURFACE('',#291,64.8500000000001,0.785398163397438);
#229=CONICAL_SURFACE('',#303,16.9999999999995,0.785398163397476);
#230=CONICAL_SURFACE('',#309,23.195967481564,0.958661907798326);
#231=CONICAL_SURFACE('',#315,61.4999999999998,0.785398163397459);
#232=STYLED_ITEM('',(#503),#246);
#233=STYLED_ITEM('',(#503),#247);
#234=STYLED_ITEM('',(#503),#248);
#235=STYLED_ITEM('',(#503),#250);
#236=STYLED_ITEM('',(#503),#251);
#237=STYLED_ITEM('',(#504),#252);
#238=STYLED_ITEM('',(#504),#253);
#239=STYLED_ITEM('',(#503),#254);
#240=STYLED_ITEM('',(#503),#255);
#241=STYLED_ITEM('',(#503),#256);
#242=STYLED_ITEM('',(#503),#257);
#243=STYLED_ITEM('',(#503),#258);
#244=STYLED_ITEM('',(#503),#259);
#245=STYLED_ITEM('',(#502),#13);
#246=ADVANCED_FACE('',(#26),#227,.F.);
#247=ADVANCED_FACE('',(#27),#22,.F.);
#248=ADVANCED_FACE('',(#28,#14),#17,.T.);
#249=ADVANCED_FACE('',(#29),#18,.T.);
#250=ADVANCED_FACE('',(#30),#228,.T.);
#251=ADVANCED_FACE('',(#31,#15),#19,.T.);
#252=ADVANCED_FACE('',(#32),#23,.T.);
#253=ADVANCED_FACE('',(#33),#20,.T.);
#254=ADVANCED_FACE('',(#34),#229,.T.);
#255=ADVANCED_FACE('',(#35),#24,.T.);
#256=ADVANCED_FACE('',(#36),#230,.T.);
#257=ADVANCED_FACE('',(#37,#16),#21,.T.);
#258=ADVANCED_FACE('',(#38),#231,.T.);
#259=ADVANCED_FACE('',(#39),#25,.T.);
#260=CLOSED_SHELL('',(#246,#247,#248,#249,#250,#251,#252,#253,#254,#255,
#256,#257,#258,#259));
#261=DERIVED_UNIT_ELEMENT(#263,1.);
#262=DERIVED_UNIT_ELEMENT(#487,3.);
#263=(
MASS_UNIT()
NAMED_UNIT(*)
SI_UNIT($,.GRAM.)
);
#264=DERIVED_UNIT((#261,#262));
#265=MEASURE_REPRESENTATION_ITEM('density measure',
POSITIVE_RATIO_MEASURE(1.),#264);
#266=PROPERTY_DEFINITION_REPRESENTATION(#271,#268);
#267=PROPERTY_DEFINITION_REPRESENTATION(#272,#269);
#268=REPRESENTATION('material name',(#270),#484);
#269=REPRESENTATION('density',(#265),#484);
#270=DESCRIPTIVE_REPRESENTATION_ITEM('Gen\X\E9rico','Gen\X\E9rico');
#271=PROPERTY_DEFINITION('material property','material name',#494);
#272=PROPERTY_DEFINITION('material property','density of part',#494);
#273=DATE_TIME_ROLE('creation_date');
#274=APPLIED_DATE_AND_TIME_ASSIGNMENT(#275,#273,(#494));
#275=DATE_AND_TIME(#276,#277);
#276=CALENDAR_DATE(2020,2,11);
#277=LOCAL_TIME(15,46,5.,#278);
#278=COORDINATED_UNIVERSAL_TIME_OFFSET(0,0,.BEHIND.);
#279=AXIS2_PLACEMENT_3D('placement',#408,#319,#320);
#280=AXIS2_PLACEMENT_3D('',#409,#321,#322);
#281=AXIS2_PLACEMENT_3D('',#412,#323,#324);
#282=AXIS2_PLACEMENT_3D('',#415,#326,#327);
#283=AXIS2_PLACEMENT_3D('',#416,#328,#329);
#284=AXIS2_PLACEMENT_3D('',#417,#330,#331);
#285=AXIS2_PLACEMENT_3D('',#420,#332,#333);
#286=AXIS2_PLACEMENT_3D('',#421,#334,#335);
#287=AXIS2_PLACEMENT_3D('',#423,#337,#338);
#288=AXIS2_PLACEMENT_3D('',#426,#339,#340);
#289=AXIS2_PLACEMENT_3D('',#427,#341,#342);
#290=AXIS2_PLACEMENT_3D('',#428,#343,#344);
#291=AXIS2_PLACEMENT_3D('',#429,#345,#346);
#292=AXIS2_PLACEMENT_3D('',#432,#347,#348);
#293=AXIS2_PLACEMENT_3D('',#436,#350,#351);
#294=AXIS2_PLACEMENT_3D('',#437,#352,#353);
#295=AXIS2_PLACEMENT_3D('',#438,#354,#355);
#296=AXIS2_PLACEMENT_3D('',#439,#356,#357);
#297=AXIS2_PLACEMENT_3D('',#442,#358,#359);
#298=AXIS2_PLACEMENT_3D('',#443,#360,#361);
#299=AXIS2_PLACEMENT_3D('',#444,#362,#363);
#300=AXIS2_PLACEMENT_3D('',#447,#364,#365);
#301=AXIS2_PLACEMENT_3D('',#448,#366,#367);
#302=AXIS2_PLACEMENT_3D('',#450,#369,#370);
#303=AXIS2_PLACEMENT_3D('',#451,#371,#372);
#304=AXIS2_PLACEMENT_3D('',#454,#373,#374);
#305=AXIS2_PLACEMENT_3D('',#455,#375,#376);
#306=AXIS2_PLACEMENT_3D('',#457,#378,#379);
#307=AXIS2_PLACEMENT_3D('',#460,#380,#381);
#308=AXIS2_PLACEMENT_3D('',#461,#382,#383);
#309=AXIS2_PLACEMENT_3D('',#463,#385,#386);
#310=AXIS2_PLACEMENT_3D('',#466,#387,#388);
#311=AXIS2_PLACEMENT_3D('',#467,#389,#390);
#312=AXIS2_PLACEMENT_3D('',#469,#392,#393);
#313=AXIS2_PLACEMENT_3D('',#472,#394,#395);
#314=AXIS2_PLACEMENT_3D('',#473,#396,#397);
#315=AXIS2_PLACEMENT_3D('',#474,#398,#399);
#316=AXIS2_PLACEMENT_3D('',#477,#400,#401);
#317=AXIS2_PLACEMENT_3D('',#478,#402,#403);
#318=AXIS2_PLACEMENT_3D('',#480,#405,#406);
#319=DIRECTION('axis',(0.,0.,1.));
#320=DIRECTION('refdir',(1.,0.,0.));
#321=DIRECTION('center_axis',(2.66256214443264E-15,1.,0.));
#322=DIRECTION('ref_axis',(-1.,2.66256214443264E-15,0.));
#323=DIRECTION('center_axis',(-2.66256214443263E-15,-1.,0.));
#324=DIRECTION('ref_axis',(-1.,2.66256214443263E-15,0.));
#325=DIRECTION('',(0.707106781186554,0.707106781186541,-8.65956056235499E-17));
#326=DIRECTION('center_axis',(2.66256214443263E-15,1.,0.));
#327=DIRECTION('ref_axis',(-1.,2.66256214443263E-15,0.));
#328=DIRECTION('center_axis',(-2.66256214443263E-15,-1.,0.));
#329=DIRECTION('ref_axis',(-1.,2.66256214443263E-15,0.));
#330=DIRECTION('center_axis',(2.66256214443263E-15,1.,0.));
#331=DIRECTION('ref_axis',(1.,-2.66256214443263E-15,0.));
#332=DIRECTION('center_axis',(2.66256214443263E-15,1.,0.));
#333=DIRECTION('ref_axis',(1.,-2.66256214443263E-15,0.));
#334=DIRECTION('center_axis',(2.66256214443263E-15,1.,0.));
#335=DIRECTION('ref_axis',(1.,-2.66256214443263E-15,0.));
#336=DIRECTION('',(2.66256214443263E-15,1.,0.));
#337=DIRECTION('center_axis',(2.66256214443263E-15,1.,0.));
#338=DIRECTION('ref_axis',(0.,0.,1.));
#339=DIRECTION('center_axis',(-2.66256214443263E-15,-1.,0.));
#340=DIRECTION('ref_axis',(1.,-2.66256214443263E-15,0.));
#341=DIRECTION('center_axis',(-2.66256214443263E-15,-1.,0.));
#342=DIRECTION('ref_axis',(1.,-2.66256214443263E-15,0.));
#343=DIRECTION('center_axis',(2.66256214443263E-15,1.,0.));
#344=DIRECTION('ref_axis',(1.,-2.66256214443263E-15,0.));
#345=DIRECTION('center_axis',(2.66256214443263E-15,1.,0.));
#346=DIRECTION('ref_axis',(1.,-2.66256214443263E-15,0.));
#347=DIRECTION('center_axis',(-2.66256214443263E-15,-1.,0.));
#348=DIRECTION('ref_axis',(1.,-2.66256214443263E-15,0.));
#349=DIRECTION('',(0.707106781186538,-0.707106781186557,-8.65956056235484E-17));
#350=DIRECTION('center_axis',(-2.66256214443263E-15,-1.,0.));
#351=DIRECTION('ref_axis',(1.,-2.66256214443263E-15,0.));
#352=DIRECTION('center_axis',(-2.66256214443263E-15,-1.,0.));
#353=DIRECTION('ref_axis',(1.,-2.66256214443263E-15,0.));
#354=DIRECTION('center_axis',(-2.66256214443263E-15,-1.,0.));
#355=DIRECTION('ref_axis',(1.,-2.66256214443263E-15,0.));
#356=DIRECTION('center_axis',(-2.66256214443263E-15,-1.,0.));
#357=DIRECTION('ref_axis',(0.,0.,-1.));
#358=DIRECTION('center_axis',(-2.66256214443263E-15,-1.,0.));
#359=DIRECTION('ref_axis',(1.,-2.66256214443263E-15,0.));
#360=DIRECTION('center_axis',(-2.66256214443263E-15,-1.,0.));
#361=DIRECTION('ref_axis',(1.,-2.66256214443263E-15,0.));
#362=DIRECTION('center_axis',(-2.66256214443263E-15,-1.,0.));
#363=DIRECTION('ref_axis',(1.,-2.66256214443263E-15,0.));
#364=DIRECTION('center_axis',(-2.66256214443263E-15,-1.,0.));
#365=DIRECTION('ref_axis',(1.,-2.66256214443263E-15,0.));
#366=DIRECTION('center_axis',(-2.66256214443263E-15,-1.,0.));
#367=DIRECTION('ref_axis',(1.,-2.66256214443263E-15,0.));
#368=DIRECTION('',(2.66256214443263E-15,1.,0.));
#369=DIRECTION('center_axis',(-2.66256214443263E-15,-1.,0.));
#370=DIRECTION('ref_axis',(0.,0.,-1.));
#371=DIRECTION('center_axis',(-2.66256214443263E-15,-1.,0.));
#372=DIRECTION('ref_axis',(1.,-2.66256214443263E-15,0.));
#373=DIRECTION('center_axis',(-2.66256214443263E-15,-1.,0.));
#374=DIRECTION('ref_axis',(1.,-2.66256214443263E-15,0.));
#375=DIRECTION('center_axis',(-2.66256214443263E-15,-1.,0.));
#376=DIRECTION('ref_axis',(1.,-2.66256214443263E-15,0.));
#377=DIRECTION('',(0.707106781186569,0.707106781186526,8.65956056235517E-17));
#378=DIRECTION('center_axis',(-2.66256214443263E-15,-1.,0.));
#379=DIRECTION('ref_axis',(1.,-2.66256214443263E-15,0.));
#380=DIRECTION('center_axis',(-2.66256214443263E-15,-1.,0.));
#381=DIRECTION('ref_axis',(1.,-2.66256214443263E-15,0.));
#382=DIRECTION('center_axis',(-2.66256214443263E-15,-1.,0.));
#383=DIRECTION('ref_axis',(1.,-2.66256214443263E-15,0.));
#384=DIRECTION('',(2.66256214443263E-15,1.,0.));
#385=DIRECTION('center_axis',(-2.66256214443263E-15,-1.,0.));
#386=DIRECTION('ref_axis',(1.,-2.66256214443263E-15,0.));
#387=DIRECTION('center_axis',(-2.66256214443263E-15,-1.,0.));
#388=DIRECTION('ref_axis',(1.,-2.66256214443263E-15,0.));
#389=DIRECTION('center_axis',(-2.66256214443263E-15,-1.,0.));
#390=DIRECTION('ref_axis',(1.,-2.66256214443263E-15,0.));
#391=DIRECTION('',(0.818423412531793,0.574615626153531,1.00227961250431E-16));
#392=DIRECTION('center_axis',(2.66256214443263E-15,1.,0.));
#393=DIRECTION('ref_axis',(0.,0.,1.));
#394=DIRECTION('center_axis',(-2.66256214443263E-15,-1.,0.));
#395=DIRECTION('ref_axis',(1.,-2.66256214443263E-15,0.));
#396=DIRECTION('center_axis',(-2.66256214443263E-15,-1.,0.));
#397=DIRECTION('ref_axis',(1.,-2.66256214443263E-15,0.));
#398=DIRECTION('center_axis',(-2.66256214443263E-15,-1.,0.));
#399=DIRECTION('ref_axis',(1.,-2.66256214443263E-15,0.));
#400=DIRECTION('center_axis',(-2.66256214443263E-15,-1.,0.));
#401=DIRECTION('ref_axis',(1.,-2.66256214443263E-15,0.));
#402=DIRECTION('center_axis',(-2.66256214443263E-15,-1.,0.));
#403=DIRECTION('ref_axis',(1.,-2.66256214443263E-15,0.));
#404=DIRECTION('',(0.707106781186557,0.707106781186538,8.65956056235503E-17));
#405=DIRECTION('center_axis',(-2.66256214443263E-15,-1.,0.));
#406=DIRECTION('ref_axis',(1.,-2.66256214443263E-15,0.));
#407=DIRECTION('',(2.66256214443263E-15,1.,0.));
#408=CARTESIAN_POINT('',(0.,0.,0.));
#409=CARTESIAN_POINT('Origin',(1.123555566494E-13,42.1982851684168,0.));
#410=CARTESIAN_POINT('',(-7.47499999999989,41.6982851684168,9.15423482362646E-16));
#411=CARTESIAN_POINT('',(7.47500000000011,41.6982851684168,-9.15423482362646E-16));
#412=CARTESIAN_POINT('Origin',(1.11024275577183E-13,41.6982851684168,0.));
#413=CARTESIAN_POINT('',(8.47500000000011,42.6982851684167,-1.03788816227738E-15));
#414=CARTESIAN_POINT('',(7.97500000000011,42.1982851684168,-9.76655822320014E-16));
#415=CARTESIAN_POINT('Origin',(1.13686837721616E-13,42.6982851684168,0.));
#416=CARTESIAN_POINT('Origin',(1.11024275577183E-13,41.6982851684168,0.));
#417=CARTESIAN_POINT('Origin',(9.771146485502E-14,36.6982851684168,0.));
#418=CARTESIAN_POINT('',(7.47500000000008,30.6982851684167,0.));
#419=CARTESIAN_POINT('',(-7.47499999999992,30.6982851684168,9.15423482362646E-16));
#420=CARTESIAN_POINT('Origin',(8.17360919884242E-14,30.6982851684168,0.));
#421=CARTESIAN_POINT('Origin',(8.17360919884242E-14,30.6982851684168,0.));
#422=CARTESIAN_POINT('',(-7.4749999999999,36.6982851684168,9.15423482362646E-16));
#423=CARTESIAN_POINT('Origin',(8.24999999999977,42.6982851684167,0.));
#424=CARTESIAN_POINT('',(16.4999999999994,42.6982851684166,0.));
#425=CARTESIAN_POINT('',(-16.4999999999992,42.6982851684167,-2.02066721859305E-15));
#426=CARTESIAN_POINT('Origin',(1.13686837721616E-13,42.6982851684167,0.));
#427=CARTESIAN_POINT('Origin',(1.13686837721616E-13,42.6982851684167,0.));
#428=CARTESIAN_POINT('Origin',(8.17360919884242E-14,30.6982851684168,0.));
#429=CARTESIAN_POINT('Origin',(4.7526734278122E-14,17.8499999999998,0.));
#430=CARTESIAN_POINT('',(65.0000000000001,17.9999999999996,0.));
#431=CARTESIAN_POINT('',(-65.0000000000001,18.,7.96020419445781E-15));
#432=CARTESIAN_POINT('Origin',(4.79261185997868E-14,17.9999999999998,0.));
#433=CARTESIAN_POINT('',(-64.7000000000001,17.7,7.92346479048339E-15));
#434=CARTESIAN_POINT('',(-64.8500000000001,17.85,7.9418344924706E-15));
#435=CARTESIAN_POINT('',(64.7000000000002,17.6999999999996,0.));
#436=CARTESIAN_POINT('Origin',(4.71273499564571E-14,17.6999999999998,0.));
#437=CARTESIAN_POINT('Origin',(4.71273499564571E-14,17.6999999999998,0.));
#438=CARTESIAN_POINT('Origin',(4.79261185997868E-14,17.9999999999998,0.));
#439=CARTESIAN_POINT('Origin',(61.1000000000002,17.6999999999997,0.));
#440=CARTESIAN_POINT('',(57.5000000000002,17.6999999999997,0.));
#441=CARTESIAN_POINT('',(-57.5000000000001,17.7,-7.04171909509729E-15));
#442=CARTESIAN_POINT('Origin',(4.71273499564571E-14,17.6999999999998,0.));
#443=CARTESIAN_POINT('Origin',(4.71273499564571E-14,17.6999999999998,0.));
#444=CARTESIAN_POINT('Origin',(2.35636749782288E-14,8.84999999999999,0.));
#445=CARTESIAN_POINT('',(57.5,0.,0.));
#446=CARTESIAN_POINT('',(-57.5000000000001,3.05311331771918E-13,-7.04171909509729E-15));
#447=CARTESIAN_POINT('Origin',(4.02319061662716E-28,1.50990331349021E-13,
0.));
#448=CARTESIAN_POINT('Origin',(4.02319061662716E-28,1.50990331349021E-13,
0.));
#449=CARTESIAN_POINT('',(-57.5000000000001,8.85000000000014,-7.04171909509729E-15));
#450=CARTESIAN_POINT('Origin',(28.75,0.,0.));
#451=CARTESIAN_POINT('Origin',(1.12355556649399E-13,42.1982851684165,0.));
#452=CARTESIAN_POINT('',(17.4999999999998,41.6982851684164,0.));
#453=CARTESIAN_POINT('',(-17.4999999999996,41.6982851684164,-2.14313189850783E-15));
#454=CARTESIAN_POINT('Origin',(1.11024275577182E-13,41.6982851684164,0.));
#455=CARTESIAN_POINT('Origin',(1.11024275577182E-13,41.6982851684164,0.));
#456=CARTESIAN_POINT('',(-16.9999999999994,42.1982851684165,-2.08189955855044E-15));
#457=CARTESIAN_POINT('Origin',(1.09692994504966E-13,41.1982851684165,0.));
#458=CARTESIAN_POINT('',(17.4999999999998,40.6982851684166,0.));
#459=CARTESIAN_POINT('',(-17.4999999999996,40.6982851684167,-2.14313189850783E-15));
#460=CARTESIAN_POINT('Origin',(1.0836171343275E-13,40.6982851684167,0.));
#461=CARTESIAN_POINT('Origin',(1.0836171343275E-13,40.6982851684167,0.));
#462=CARTESIAN_POINT('',(-17.4999999999996,41.1982851684165,-2.14313189850783E-15));
#463=CARTESIAN_POINT('Origin',(9.77137477778478E-14,36.699142584208,0.));
#464=CARTESIAN_POINT('',(28.8919349631285,32.6999999999992,0.));
#465=CARTESIAN_POINT('',(-28.8919349631283,32.6999999999994,-3.53824156737687E-15));
#466=CARTESIAN_POINT('Origin',(8.70657821229453E-14,32.6999999999993,0.));
#467=CARTESIAN_POINT('Origin',(8.70657821229453E-14,32.6999999999993,0.));
#468=CARTESIAN_POINT('',(-23.1959674815639,36.6991425842081,-2.84068673294234E-15));
#469=CARTESIAN_POINT('Origin',(43.4459674815641,32.6999999999991,0.));
#470=CARTESIAN_POINT('',(57.9999999999998,32.6999999999989,0.));
#471=CARTESIAN_POINT('',(-57.9999999999996,32.6999999999992,-7.10295143505461E-15));
#472=CARTESIAN_POINT('Origin',(8.70657821229445E-14,32.699999999999,0.));
#473=CARTESIAN_POINT('Origin',(8.70657821229445E-14,32.699999999999,0.));
#474=CARTESIAN_POINT('Origin',(7.77468146174302E-14,29.199999999999,0.));
#475=CARTESIAN_POINT('',(65.,25.6999999999988,0.));
#476=CARTESIAN_POINT('',(-64.9999999999999,25.6999999999991,-7.96020419445779E-15));
#477=CARTESIAN_POINT('Origin',(6.84278471119158E-14,25.6999999999989,0.));
#478=CARTESIAN_POINT('Origin',(6.84278471119158E-14,25.6999999999989,0.));
#479=CARTESIAN_POINT('',(-61.4999999999997,29.1999999999992,-7.5315778147562E-15));
#480=CARTESIAN_POINT('Origin',(5.81769828558513E-14,21.8499999999994,0.));
#481=CARTESIAN_POINT('',(-64.9999999999999,21.8499999999996,-7.9602041944578E-15));
#482=UNCERTAINTY_MEASURE_WITH_UNIT(LENGTH_MEASURE(0.01),#486,
'DISTANCE_ACCURACY_VALUE',
'Maximum model space distance between geometric entities at asserted c
onnectivities');
#483=UNCERTAINTY_MEASURE_WITH_UNIT(LENGTH_MEASURE(0.01),#486,
'DISTANCE_ACCURACY_VALUE',
'Maximum model space distance between geometric entities at asserted c
onnectivities');
#484=(
GEOMETRIC_REPRESENTATION_CONTEXT(3)
GLOBAL_UNCERTAINTY_ASSIGNED_CONTEXT((#482))
GLOBAL_UNIT_ASSIGNED_CONTEXT((#486,#488,#489))
REPRESENTATION_CONTEXT('','3D')
);
#485=(
GEOMETRIC_REPRESENTATION_CONTEXT(3)
GLOBAL_UNCERTAINTY_ASSIGNED_CONTEXT((#483))
GLOBAL_UNIT_ASSIGNED_CONTEXT((#486,#488,#489))
REPRESENTATION_CONTEXT('','3D')
);
#486=(
LENGTH_UNIT()
NAMED_UNIT(*)
SI_UNIT(.MILLI.,.METRE.)
);
#487=(
LENGTH_UNIT()
NAMED_UNIT(*)
SI_UNIT(.CENTI.,.METRE.)
);
#488=(
NAMED_UNIT(*)
PLANE_ANGLE_UNIT()
SI_UNIT($,.RADIAN.)
);
#489=(
NAMED_UNIT(*)
SI_UNIT($,.STERADIAN.)
SOLID_ANGLE_UNIT()
);
#490=SHAPE_DEFINITION_REPRESENTATION(#491,#492);
#491=PRODUCT_DEFINITION_SHAPE('',$,#494);
#492=SHAPE_REPRESENTATION('',(#279),#484);
#493=PRODUCT_DEFINITION_CONTEXT('part definition',#498,'design');
#494=PRODUCT_DEFINITION('Pieza10','Pieza10',#495,#493);
#495=PRODUCT_DEFINITION_FORMATION('',$,#500);
#496=PRODUCT_RELATED_PRODUCT_CATEGORY('Pieza10','Pieza10',(#500));
#497=APPLICATION_PROTOCOL_DEFINITION('international standard',
'automotive_design',2009,#498);
#498=APPLICATION_CONTEXT(
'Core Data for Automotive Mechanical Design Process');
#499=PRODUCT_CONTEXT('part definition',#498,'mechanical');
#500=PRODUCT('Pieza10','Pieza10',$,(#499));
#501=PRESENTATION_STYLE_ASSIGNMENT((#505));
#502=PRESENTATION_STYLE_ASSIGNMENT((#506));
#503=PRESENTATION_STYLE_ASSIGNMENT((#507));
#504=PRESENTATION_STYLE_ASSIGNMENT((#508));
#505=SURFACE_STYLE_USAGE(.BOTH.,#517);
#506=SURFACE_STYLE_USAGE(.BOTH.,#518);
#507=SURFACE_STYLE_USAGE(.BOTH.,#519);
#508=SURFACE_STYLE_USAGE(.BOTH.,#520);
#509=SURFACE_STYLE_RENDERING_WITH_PROPERTIES($,#533,(#513));
#510=SURFACE_STYLE_RENDERING_WITH_PROPERTIES($,#534,(#514));
#511=SURFACE_STYLE_RENDERING_WITH_PROPERTIES($,#535,(#515));
#512=SURFACE_STYLE_RENDERING_WITH_PROPERTIES($,#536,(#516));
#513=SURFACE_STYLE_TRANSPARENT(0.);
#514=SURFACE_STYLE_TRANSPARENT(0.);
#515=SURFACE_STYLE_TRANSPARENT(0.);
#516=SURFACE_STYLE_TRANSPARENT(0.);
#517=SURFACE_SIDE_STYLE('',(#521,#509));
#518=SURFACE_SIDE_STYLE('',(#522,#510));
#519=SURFACE_SIDE_STYLE('',(#523,#511));
#520=SURFACE_SIDE_STYLE('',(#524,#512));
#521=SURFACE_STYLE_FILL_AREA(#525);
#522=SURFACE_STYLE_FILL_AREA(#526);
#523=SURFACE_STYLE_FILL_AREA(#527);
#524=SURFACE_STYLE_FILL_AREA(#528);
#525=FILL_AREA_STYLE('',(#529));
#526=FILL_AREA_STYLE('',(#530));
#527=FILL_AREA_STYLE('',(#531));
#528=FILL_AREA_STYLE('',(#532));
#529=FILL_AREA_STYLE_COLOUR('',#533);
#530=FILL_AREA_STYLE_COLOUR('',#534);
#531=FILL_AREA_STYLE_COLOUR('',#535);
#532=FILL_AREA_STYLE_COLOUR('',#536);
#533=COLOUR_RGB('',0.749019607843137,0.749019607843137,0.749019607843137);
#534=COLOUR_RGB('',0.0509803921568627,0.262745098039216,1.);
#535=COLOUR_RGB('',0.,0.486274509803922,0.690196078431373);
#536=COLOUR_RGB('',0.32156862745098,0.32156862745098,0.32156862745098);
ENDSEC;
END-ISO-10303-21;
