ISO-10303-21;
HEADER;
/* Generated by software containing ST-Developer
 * from STEP Tools, Inc. (www.steptools.com) 
 */

FILE_DESCRIPTION(
/* description */ (''),
/* implementation_level */ '2;1');

FILE_NAME(
/* name */ 'C:\\Users\\enginyeria\\Desktop\\vpd63epdm20.stp',
/* time_stamp */ '2022-01-07T13:42:02+01:00',
/* author */ ('enginyeria'),
/* organization */ (''),
/* preprocessor_version */ 'ST-DEVELOPER v17.2',
/* originating_system */ 'Autodesk Inventor 2019',
/* authorisation */ '');

FILE_SCHEMA (('AUTOMOTIVE_DESIGN { 1 0 10303 214 3 1 1 }'));
ENDSEC;

DATA;
#10=MECHANICAL_DESIGN_GEOMETRIC_PRESENTATION_REPRESENTATION('',(#232,#233,
#234,#235,#236,#237,#238,#239,#240,#241,#242,#243,#244,#245,#246),#486);
#11=SHAPE_REPRESENTATION_RELATIONSHIP('SRR','None',#493,#12);
#12=ADVANCED_BREP_SHAPE_REPRESENTATION('',(#13),#485);
#13=MANIFOLD_SOLID_BREP('S\X\F3lido2',#261);
#14=FACE_BOUND('',#43,.T.);
#15=FACE_BOUND('',#49,.T.);
#16=FACE_BOUND('',#54,.T.);
#17=PLANE('',#288);
#18=PLANE('',#291);
#19=PLANE('',#301);
#20=PLANE('',#313);
#21=PLANE('',#319);
#22=CYLINDRICAL_SURFACE('',#285,5.7225);
#23=CYLINDRICAL_SURFACE('',#295,10.0000000000002);
#24=CYLINDRICAL_SURFACE('',#307,38.5);
#25=CYLINDRICAL_SURFACE('',#316,30.5);
#26=FACE_OUTER_BOUND('',#40,.T.);
#27=FACE_OUTER_BOUND('',#41,.T.);
#28=FACE_OUTER_BOUND('',#42,.T.);
#29=FACE_OUTER_BOUND('',#44,.T.);
#30=FACE_OUTER_BOUND('',#45,.T.);
#31=FACE_OUTER_BOUND('',#46,.T.);
#32=FACE_OUTER_BOUND('',#47,.T.);
#33=FACE_OUTER_BOUND('',#48,.T.);
#34=FACE_OUTER_BOUND('',#50,.T.);
#35=FACE_OUTER_BOUND('',#51,.T.);
#36=FACE_OUTER_BOUND('',#52,.T.);
#37=FACE_OUTER_BOUND('',#53,.T.);
#38=FACE_OUTER_BOUND('',#55,.T.);
#39=FACE_OUTER_BOUND('',#56,.T.);
#40=EDGE_LOOP('',(#159,#160,#161,#162,#163));
#41=EDGE_LOOP('',(#164,#165,#166,#167,#168,#169));
#42=EDGE_LOOP('',(#170,#171));
#43=EDGE_LOOP('',(#172));
#44=EDGE_LOOP('',(#173,#174));
#45=EDGE_LOOP('',(#175,#176,#177,#178,#179,#180));
#46=EDGE_LOOP('',(#181,#182,#183,#184,#185,#186));
#47=EDGE_LOOP('',(#187,#188,#189,#190,#191,#192));
#48=EDGE_LOOP('',(#193,#194));
#49=EDGE_LOOP('',(#195,#196));
#50=EDGE_LOOP('',(#197,#198,#199,#200,#201,#202));
#51=EDGE_LOOP('',(#203,#204,#205,#206,#207,#208));
#52=EDGE_LOOP('',(#209,#210,#211,#212,#213,#214));
#53=EDGE_LOOP('',(#215,#216));
#54=EDGE_LOOP('',(#217,#218));
#55=EDGE_LOOP('',(#219,#220,#221,#222,#223,#224));
#56=EDGE_LOOP('',(#225,#226));
#57=LINE('',#415,#66);
#58=LINE('',#423,#67);
#59=LINE('',#435,#68);
#60=LINE('',#441,#69);
#61=LINE('',#447,#70);
#62=LINE('',#458,#71);
#63=LINE('',#464,#72);
#64=LINE('',#467,#73);
#65=LINE('',#481,#74);
#66=VECTOR('',#326,5.9725);
#67=VECTOR('',#337,5.7225);
#68=VECTOR('',#352,9.50000000000005);
#69=VECTOR('',#359,10.0000000000002);
#70=VECTOR('',#366,18.7500000000001);
#71=VECTOR('',#379,37.4999999999999);
#72=VECTOR('',#386,38.5);
#73=VECTOR('',#389,38.3500000000001);
#74=VECTOR('',#406,30.5);
#75=CIRCLE('',#282,5.7225);
#76=CIRCLE('',#283,6.2225);
#77=CIRCLE('',#284,5.7225);
#78=CIRCLE('',#286,5.7225);
#79=CIRCLE('',#287,5.7225);
#80=CIRCLE('',#289,8.99999999999989);
#81=CIRCLE('',#290,8.99999999999989);
#82=CIRCLE('',#293,10.0000000000002);
#83=CIRCLE('',#294,10.0000000000002);
#84=CIRCLE('',#296,10.0000000000002);
#85=CIRCLE('',#297,10.0000000000002);
#86=CIRCLE('',#299,27.5000000000001);
#87=CIRCLE('',#300,27.5000000000001);
#88=CIRCLE('',#302,36.5);
#89=CIRCLE('',#303,36.5);
#90=CIRCLE('',#305,38.4999999999999);
#91=CIRCLE('',#306,38.4999999999999);
#92=CIRCLE('',#308,38.5000000000001);
#93=CIRCLE('',#309,38.5000000000001);
#94=CIRCLE('',#311,38.2000000000001);
#95=CIRCLE('',#312,38.2000000000001);
#96=CIRCLE('',#314,30.5000000000002);
#97=CIRCLE('',#315,30.5000000000002);
#98=CIRCLE('',#317,30.4999999999998);
#99=CIRCLE('',#318,30.4999999999998);
#100=VERTEX_POINT('',#411);
#101=VERTEX_POINT('',#412);
#102=VERTEX_POINT('',#414);
#103=VERTEX_POINT('',#419);
#104=VERTEX_POINT('',#420);
#105=VERTEX_POINT('',#425);
#106=VERTEX_POINT('',#426);
#107=VERTEX_POINT('',#431);
#108=VERTEX_POINT('',#432);
#109=VERTEX_POINT('',#437);
#110=VERTEX_POINT('',#438);
#111=VERTEX_POINT('',#443);
#112=VERTEX_POINT('',#444);
#113=VERTEX_POINT('',#449);
#114=VERTEX_POINT('',#450);
#115=VERTEX_POINT('',#454);
#116=VERTEX_POINT('',#455);
#117=VERTEX_POINT('',#460);
#118=VERTEX_POINT('',#461);
#119=VERTEX_POINT('',#466);
#120=VERTEX_POINT('',#468);
#121=VERTEX_POINT('',#472);
#122=VERTEX_POINT('',#473);
#123=VERTEX_POINT('',#477);
#124=VERTEX_POINT('',#478);
#125=EDGE_CURVE('',#100,#101,#75,.T.);
#126=EDGE_CURVE('',#101,#102,#57,.T.);
#127=EDGE_CURVE('',#102,#102,#76,.T.);
#128=EDGE_CURVE('',#101,#100,#77,.T.);
#129=EDGE_CURVE('',#103,#104,#78,.T.);
#130=EDGE_CURVE('',#104,#103,#79,.T.);
#131=EDGE_CURVE('',#104,#100,#58,.T.);
#132=EDGE_CURVE('',#105,#106,#80,.T.);
#133=EDGE_CURVE('',#106,#105,#81,.T.);
#134=EDGE_CURVE('',#107,#108,#82,.T.);
#135=EDGE_CURVE('',#108,#107,#83,.T.);
#136=EDGE_CURVE('',#108,#106,#59,.T.);
#137=EDGE_CURVE('',#109,#110,#84,.T.);
#138=EDGE_CURVE('',#110,#109,#85,.T.);
#139=EDGE_CURVE('',#110,#108,#60,.T.);
#140=EDGE_CURVE('',#111,#112,#86,.T.);
#141=EDGE_CURVE('',#112,#111,#87,.T.);
#142=EDGE_CURVE('',#112,#110,#61,.T.);
#143=EDGE_CURVE('',#113,#114,#88,.T.);
#144=EDGE_CURVE('',#114,#113,#89,.T.);
#145=EDGE_CURVE('',#115,#116,#90,.T.);
#146=EDGE_CURVE('',#116,#115,#91,.T.);
#147=EDGE_CURVE('',#116,#114,#62,.T.);
#148=EDGE_CURVE('',#117,#118,#92,.T.);
#149=EDGE_CURVE('',#118,#117,#93,.T.);
#150=EDGE_CURVE('',#118,#116,#63,.T.);
#151=EDGE_CURVE('',#118,#119,#64,.T.);
#152=EDGE_CURVE('',#120,#119,#94,.T.);
#153=EDGE_CURVE('',#119,#120,#95,.T.);
#154=EDGE_CURVE('',#121,#122,#96,.T.);
#155=EDGE_CURVE('',#122,#121,#97,.T.);
#156=EDGE_CURVE('',#123,#124,#98,.T.);
#157=EDGE_CURVE('',#124,#123,#99,.T.);
#158=EDGE_CURVE('',#124,#122,#65,.T.);
#159=ORIENTED_EDGE('',*,*,#125,.T.);
#160=ORIENTED_EDGE('',*,*,#126,.T.);
#161=ORIENTED_EDGE('',*,*,#127,.T.);
#162=ORIENTED_EDGE('',*,*,#126,.F.);
#163=ORIENTED_EDGE('',*,*,#128,.T.);
#164=ORIENTED_EDGE('',*,*,#129,.F.);
#165=ORIENTED_EDGE('',*,*,#130,.F.);
#166=ORIENTED_EDGE('',*,*,#131,.T.);
#167=ORIENTED_EDGE('',*,*,#128,.F.);
#168=ORIENTED_EDGE('',*,*,#125,.F.);
#169=ORIENTED_EDGE('',*,*,#131,.F.);
#170=ORIENTED_EDGE('',*,*,#132,.F.);
#171=ORIENTED_EDGE('',*,*,#133,.F.);
#172=ORIENTED_EDGE('',*,*,#127,.F.);
#173=ORIENTED_EDGE('',*,*,#129,.T.);
#174=ORIENTED_EDGE('',*,*,#130,.T.);
#175=ORIENTED_EDGE('',*,*,#134,.F.);
#176=ORIENTED_EDGE('',*,*,#135,.F.);
#177=ORIENTED_EDGE('',*,*,#136,.T.);
#178=ORIENTED_EDGE('',*,*,#133,.T.);
#179=ORIENTED_EDGE('',*,*,#132,.T.);
#180=ORIENTED_EDGE('',*,*,#136,.F.);
#181=ORIENTED_EDGE('',*,*,#137,.F.);
#182=ORIENTED_EDGE('',*,*,#138,.F.);
#183=ORIENTED_EDGE('',*,*,#139,.T.);
#184=ORIENTED_EDGE('',*,*,#135,.T.);
#185=ORIENTED_EDGE('',*,*,#134,.T.);
#186=ORIENTED_EDGE('',*,*,#139,.F.);
#187=ORIENTED_EDGE('',*,*,#140,.F.);
#188=ORIENTED_EDGE('',*,*,#141,.F.);
#189=ORIENTED_EDGE('',*,*,#142,.T.);
#190=ORIENTED_EDGE('',*,*,#138,.T.);
#191=ORIENTED_EDGE('',*,*,#137,.T.);
#192=ORIENTED_EDGE('',*,*,#142,.F.);
#193=ORIENTED_EDGE('',*,*,#143,.F.);
#194=ORIENTED_EDGE('',*,*,#144,.F.);
#195=ORIENTED_EDGE('',*,*,#140,.T.);
#196=ORIENTED_EDGE('',*,*,#141,.T.);
#197=ORIENTED_EDGE('',*,*,#145,.F.);
#198=ORIENTED_EDGE('',*,*,#146,.F.);
#199=ORIENTED_EDGE('',*,*,#147,.T.);
#200=ORIENTED_EDGE('',*,*,#144,.T.);
#201=ORIENTED_EDGE('',*,*,#143,.T.);
#202=ORIENTED_EDGE('',*,*,#147,.F.);
#203=ORIENTED_EDGE('',*,*,#148,.F.);
#204=ORIENTED_EDGE('',*,*,#149,.F.);
#205=ORIENTED_EDGE('',*,*,#150,.T.);
#206=ORIENTED_EDGE('',*,*,#146,.T.);
#207=ORIENTED_EDGE('',*,*,#145,.T.);
#208=ORIENTED_EDGE('',*,*,#150,.F.);
#209=ORIENTED_EDGE('',*,*,#148,.T.);
#210=ORIENTED_EDGE('',*,*,#151,.T.);
#211=ORIENTED_EDGE('',*,*,#152,.F.);
#212=ORIENTED_EDGE('',*,*,#153,.F.);
#213=ORIENTED_EDGE('',*,*,#151,.F.);
#214=ORIENTED_EDGE('',*,*,#149,.T.);
#215=ORIENTED_EDGE('',*,*,#152,.T.);
#216=ORIENTED_EDGE('',*,*,#153,.T.);
#217=ORIENTED_EDGE('',*,*,#154,.F.);
#218=ORIENTED_EDGE('',*,*,#155,.F.);
#219=ORIENTED_EDGE('',*,*,#156,.F.);
#220=ORIENTED_EDGE('',*,*,#157,.F.);
#221=ORIENTED_EDGE('',*,*,#158,.T.);
#222=ORIENTED_EDGE('',*,*,#155,.T.);
#223=ORIENTED_EDGE('',*,*,#154,.T.);
#224=ORIENTED_EDGE('',*,*,#158,.F.);
#225=ORIENTED_EDGE('',*,*,#156,.T.);
#226=ORIENTED_EDGE('',*,*,#157,.T.);
#227=CONICAL_SURFACE('',#281,5.9725,0.785398163397453);
#228=CONICAL_SURFACE('',#292,9.50000000000005,0.785398163397466);
#229=CONICAL_SURFACE('',#298,18.7500000000001,1.14209935448624);
#230=CONICAL_SURFACE('',#304,37.4999999999999,0.785398163397403);
#231=CONICAL_SURFACE('',#310,38.3500000000001,0.785398163397466);
#232=STYLED_ITEM('',(#503),#247);
#233=STYLED_ITEM('',(#503),#248);
#234=STYLED_ITEM('',(#503),#249);
#235=STYLED_ITEM('',(#504),#250);
#236=STYLED_ITEM('',(#503),#251);
#237=STYLED_ITEM('',(#503),#252);
#238=STYLED_ITEM('',(#503),#253);
#239=STYLED_ITEM('',(#503),#254);
#240=STYLED_ITEM('',(#503),#255);
#241=STYLED_ITEM('',(#503),#256);
#242=STYLED_ITEM('',(#503),#257);
#243=STYLED_ITEM('',(#503),#258);
#244=STYLED_ITEM('',(#505),#259);
#245=STYLED_ITEM('',(#505),#260);
#246=STYLED_ITEM('',(#502),#13);
#247=ADVANCED_FACE('',(#26),#227,.F.);
#248=ADVANCED_FACE('',(#27),#22,.F.);
#249=ADVANCED_FACE('',(#28,#14),#17,.T.);
#250=ADVANCED_FACE('',(#29),#18,.T.);
#251=ADVANCED_FACE('',(#30),#228,.T.);
#252=ADVANCED_FACE('',(#31),#23,.T.);
#253=ADVANCED_FACE('',(#32),#229,.T.);
#254=ADVANCED_FACE('',(#33,#15),#19,.T.);
#255=ADVANCED_FACE('',(#34),#230,.T.);
#256=ADVANCED_FACE('',(#35),#24,.T.);
#257=ADVANCED_FACE('',(#36),#231,.T.);
#258=ADVANCED_FACE('',(#37,#16),#20,.T.);
#259=ADVANCED_FACE('',(#38),#25,.T.);
#260=ADVANCED_FACE('',(#39),#21,.T.);
#261=CLOSED_SHELL('',(#247,#248,#249,#250,#251,#252,#253,#254,#255,#256,
#257,#258,#259,#260));
#262=DERIVED_UNIT_ELEMENT(#264,1.);
#263=DERIVED_UNIT_ELEMENT(#488,3.);
#264=(
MASS_UNIT()
NAMED_UNIT(*)
SI_UNIT($,.GRAM.)
);
#265=DERIVED_UNIT((#262,#263));
#266=MEASURE_REPRESENTATION_ITEM('density measure',
POSITIVE_RATIO_MEASURE(1.),#265);
#267=PROPERTY_DEFINITION_REPRESENTATION(#272,#269);
#268=PROPERTY_DEFINITION_REPRESENTATION(#273,#270);
#269=REPRESENTATION('material name',(#271),#485);
#270=REPRESENTATION('density',(#266),#485);
#271=DESCRIPTIVE_REPRESENTATION_ITEM('Gen\X\E9rico','Gen\X\E9rico');
#272=PROPERTY_DEFINITION('material property','material name',#495);
#273=PROPERTY_DEFINITION('material property','density of part',#495);
#274=DATE_TIME_ROLE('creation_date');
#275=APPLIED_DATE_AND_TIME_ASSIGNMENT(#276,#274,(#495));
#276=DATE_AND_TIME(#277,#278);
#277=CALENDAR_DATE(2020,9,6);
#278=LOCAL_TIME(16,22,23.,#279);
#279=COORDINATED_UNIVERSAL_TIME_OFFSET(0,0,.BEHIND.);
#280=AXIS2_PLACEMENT_3D('placement',#409,#320,#321);
#281=AXIS2_PLACEMENT_3D('',#410,#322,#323);
#282=AXIS2_PLACEMENT_3D('',#413,#324,#325);
#283=AXIS2_PLACEMENT_3D('',#416,#327,#328);
#284=AXIS2_PLACEMENT_3D('',#417,#329,#330);
#285=AXIS2_PLACEMENT_3D('',#418,#331,#332);
#286=AXIS2_PLACEMENT_3D('',#421,#333,#334);
#287=AXIS2_PLACEMENT_3D('',#422,#335,#336);
#288=AXIS2_PLACEMENT_3D('',#424,#338,#339);
#289=AXIS2_PLACEMENT_3D('',#427,#340,#341);
#290=AXIS2_PLACEMENT_3D('',#428,#342,#343);
#291=AXIS2_PLACEMENT_3D('',#429,#344,#345);
#292=AXIS2_PLACEMENT_3D('',#430,#346,#347);
#293=AXIS2_PLACEMENT_3D('',#433,#348,#349);
#294=AXIS2_PLACEMENT_3D('',#434,#350,#351);
#295=AXIS2_PLACEMENT_3D('',#436,#353,#354);
#296=AXIS2_PLACEMENT_3D('',#439,#355,#356);
#297=AXIS2_PLACEMENT_3D('',#440,#357,#358);
#298=AXIS2_PLACEMENT_3D('',#442,#360,#361);
#299=AXIS2_PLACEMENT_3D('',#445,#362,#363);
#300=AXIS2_PLACEMENT_3D('',#446,#364,#365);
#301=AXIS2_PLACEMENT_3D('',#448,#367,#368);
#302=AXIS2_PLACEMENT_3D('',#451,#369,#370);
#303=AXIS2_PLACEMENT_3D('',#452,#371,#372);
#304=AXIS2_PLACEMENT_3D('',#453,#373,#374);
#305=AXIS2_PLACEMENT_3D('',#456,#375,#376);
#306=AXIS2_PLACEMENT_3D('',#457,#377,#378);
#307=AXIS2_PLACEMENT_3D('',#459,#380,#381);
#308=AXIS2_PLACEMENT_3D('',#462,#382,#383);
#309=AXIS2_PLACEMENT_3D('',#463,#384,#385);
#310=AXIS2_PLACEMENT_3D('',#465,#387,#388);
#311=AXIS2_PLACEMENT_3D('',#469,#390,#391);
#312=AXIS2_PLACEMENT_3D('',#470,#392,#393);
#313=AXIS2_PLACEMENT_3D('',#471,#394,#395);
#314=AXIS2_PLACEMENT_3D('',#474,#396,#397);
#315=AXIS2_PLACEMENT_3D('',#475,#398,#399);
#316=AXIS2_PLACEMENT_3D('',#476,#400,#401);
#317=AXIS2_PLACEMENT_3D('',#479,#402,#403);
#318=AXIS2_PLACEMENT_3D('',#480,#404,#405);
#319=AXIS2_PLACEMENT_3D('',#482,#407,#408);
#320=DIRECTION('axis',(0.,0.,1.));
#321=DIRECTION('refdir',(1.,0.,0.));
#322=DIRECTION('center_axis',(-1.04716286606634E-14,1.,0.));
#323=DIRECTION('ref_axis',(-1.,-1.04716286606634E-14,0.));
#324=DIRECTION('center_axis',(1.04716286606633E-14,-1.,0.));
#325=DIRECTION('ref_axis',(-1.,-1.04716286606633E-14,0.));
#326=DIRECTION('',(0.707106781186543,0.707106781186552,-8.65956056235497E-17));
#327=DIRECTION('center_axis',(-1.04716286606633E-14,1.,0.));
#328=DIRECTION('ref_axis',(-1.,-1.04716286606633E-14,0.));
#329=DIRECTION('center_axis',(1.04716286606633E-14,-1.,0.));
#330=DIRECTION('ref_axis',(-1.,-1.04716286606633E-14,0.));
#331=DIRECTION('center_axis',(-1.04716286606633E-14,1.,0.));
#332=DIRECTION('ref_axis',(1.,1.04716286606633E-14,0.));
#333=DIRECTION('center_axis',(-1.04716286606633E-14,1.,0.));
#334=DIRECTION('ref_axis',(1.,1.04716286606633E-14,0.));
#335=DIRECTION('center_axis',(-1.04716286606633E-14,1.,0.));
#336=DIRECTION('ref_axis',(1.,1.04716286606633E-14,0.));
#337=DIRECTION('',(-1.04716286606633E-14,1.,0.));
#338=DIRECTION('center_axis',(-1.04716286606633E-14,1.,0.));
#339=DIRECTION('ref_axis',(0.,0.,1.));
#340=DIRECTION('center_axis',(1.04716286606633E-14,-1.,0.));
#341=DIRECTION('ref_axis',(1.,1.04716286606633E-14,0.));
#342=DIRECTION('center_axis',(1.04716286606633E-14,-1.,0.));
#343=DIRECTION('ref_axis',(1.,1.04716286606633E-14,0.));
#344=DIRECTION('center_axis',(-1.04716286606633E-14,1.,0.));
#345=DIRECTION('ref_axis',(1.,1.04716286606633E-14,0.));
#346=DIRECTION('center_axis',(1.04716286606633E-14,-1.,0.));
#347=DIRECTION('ref_axis',(1.,1.04716286606633E-14,0.));
#348=DIRECTION('center_axis',(1.04716286606633E-14,-1.,0.));
#349=DIRECTION('ref_axis',(1.,1.04716286606633E-14,0.));
#350=DIRECTION('center_axis',(1.04716286606633E-14,-1.,0.));
#351=DIRECTION('ref_axis',(1.,1.04716286606633E-14,0.));
#352=DIRECTION('',(0.707106781186553,0.707106781186542,8.65956056235509E-17));
#353=DIRECTION('center_axis',(1.04716286606633E-14,-1.,0.));
#354=DIRECTION('ref_axis',(1.,1.04716286606633E-14,0.));
#355=DIRECTION('center_axis',(1.04716286606633E-14,-1.,0.));
#356=DIRECTION('ref_axis',(1.,1.04716286606633E-14,0.));
#357=DIRECTION('center_axis',(1.04716286606633E-14,-1.,0.));
#358=DIRECTION('ref_axis',(1.,1.04716286606633E-14,0.));
#359=DIRECTION('',(-1.04716286606633E-14,1.,0.));
#360=DIRECTION('center_axis',(1.04716286606633E-14,-1.,0.));
#361=DIRECTION('ref_axis',(1.,1.04716286606633E-14,0.));
#362=DIRECTION('center_axis',(1.04716286606633E-14,-1.,0.));
#363=DIRECTION('ref_axis',(1.,1.04716286606633E-14,0.));
#364=DIRECTION('center_axis',(1.04716286606633E-14,-1.,0.));
#365=DIRECTION('ref_axis',(1.,1.04716286606633E-14,0.));
#366=DIRECTION('',(0.909508172062642,0.415686041323583,1.11382627171488E-16));
#367=DIRECTION('center_axis',(-1.04716286606633E-14,1.,0.));
#368=DIRECTION('ref_axis',(0.,0.,1.));
#369=DIRECTION('center_axis',(1.04716286606633E-14,-1.,0.));
#370=DIRECTION('ref_axis',(1.,1.04716286606633E-14,0.));
#371=DIRECTION('center_axis',(1.04716286606633E-14,-1.,0.));
#372=DIRECTION('ref_axis',(1.,1.04716286606633E-14,0.));
#373=DIRECTION('center_axis',(1.04716286606633E-14,-1.,0.));
#374=DIRECTION('ref_axis',(1.,1.04716286606633E-14,0.));
#375=DIRECTION('center_axis',(1.04716286606633E-14,-1.,0.));
#376=DIRECTION('ref_axis',(1.,1.04716286606633E-14,0.));
#377=DIRECTION('center_axis',(1.04716286606633E-14,-1.,0.));
#378=DIRECTION('ref_axis',(1.,1.04716286606633E-14,0.));
#379=DIRECTION('',(0.707106781186508,0.707106781186587,8.65956056235454E-17));
#380=DIRECTION('center_axis',(1.04716286606633E-14,-1.,0.));
#381=DIRECTION('ref_axis',(1.,1.04716286606633E-14,0.));
#382=DIRECTION('center_axis',(1.04716286606633E-14,-1.,0.));
#383=DIRECTION('ref_axis',(1.,1.04716286606633E-14,0.));
#384=DIRECTION('center_axis',(1.04716286606633E-14,-1.,0.));
#385=DIRECTION('ref_axis',(1.,1.04716286606633E-14,0.));
#386=DIRECTION('',(-1.04716286606633E-14,1.,0.));
#387=DIRECTION('center_axis',(-1.04716286606633E-14,1.,0.));
#388=DIRECTION('ref_axis',(1.,1.04716286606633E-14,0.));
#389=DIRECTION('',(0.707106781186567,-0.707106781186527,-8.65956056235508E-17));
#390=DIRECTION('center_axis',(1.04716286606633E-14,-1.,0.));
#391=DIRECTION('ref_axis',(1.,1.04716286606633E-14,0.));
#392=DIRECTION('center_axis',(1.04716286606633E-14,-1.,0.));
#393=DIRECTION('ref_axis',(1.,1.04716286606633E-14,0.));
#394=DIRECTION('center_axis',(1.04716286606633E-14,-1.,0.));
#395=DIRECTION('ref_axis',(0.,0.,-1.));
#396=DIRECTION('center_axis',(1.04716286606633E-14,-1.,0.));
#397=DIRECTION('ref_axis',(1.,1.04716286606633E-14,0.));
#398=DIRECTION('center_axis',(1.04716286606633E-14,-1.,0.));
#399=DIRECTION('ref_axis',(1.,1.04716286606633E-14,0.));
#400=DIRECTION('center_axis',(1.04716286606633E-14,-1.,0.));
#401=DIRECTION('ref_axis',(1.,1.04716286606633E-14,0.));
#402=DIRECTION('center_axis',(1.04716286606633E-14,-1.,0.));
#403=DIRECTION('ref_axis',(1.,1.04716286606633E-14,0.));
#404=DIRECTION('center_axis',(1.04716286606633E-14,-1.,0.));
#405=DIRECTION('ref_axis',(1.,1.04716286606633E-14,0.));
#406=DIRECTION('',(-1.04716286606633E-14,1.,0.));
#407=DIRECTION('center_axis',(1.04716286606633E-14,-1.,0.));
#408=DIRECTION('ref_axis',(0.,0.,-1.));
#409=CARTESIAN_POINT('',(0.,0.,0.));
#410=CARTESIAN_POINT('Origin',(-3.9528602486049E-13,37.7482851684172,0.));
#411=CARTESIAN_POINT('',(-5.72250000000039,37.4982851684172,7.00804130812073E-16));
#412=CARTESIAN_POINT('',(5.72249999999961,37.4982851684173,-7.00804130812073E-16));
#413=CARTESIAN_POINT('Origin',(-3.92668117695324E-13,37.4982851684172,0.));
#414=CARTESIAN_POINT('',(6.2224999999996,37.9982851684172,-7.6203647076944E-16));
#415=CARTESIAN_POINT('',(5.97249999999961,37.7482851684173,-7.31420300790757E-16));
#416=CARTESIAN_POINT('Origin',(-3.97903932025656E-13,37.9982851684172,0.));
#417=CARTESIAN_POINT('Origin',(-3.92668117695324E-13,37.4982851684172,0.));
#418=CARTESIAN_POINT('Origin',(-3.45545788722339E-13,32.9982851684172,0.));
#419=CARTESIAN_POINT('',(5.72249999999971,27.9982851684172,0.));
#420=CARTESIAN_POINT('',(-5.72250000000029,27.9982851684171,7.00804130812073E-16));
#421=CARTESIAN_POINT('Origin',(-2.93187645419022E-13,27.9982851684172,0.));
#422=CARTESIAN_POINT('Origin',(-2.93187645419022E-13,27.9982851684172,0.));
#423=CARTESIAN_POINT('',(-5.72250000000035,32.9982851684171,7.00804130812073E-16));
#424=CARTESIAN_POINT('Origin',(4.49999999999955,37.9982851684172,0.));
#425=CARTESIAN_POINT('',(8.99999999999949,37.9982851684172,0.));
#426=CARTESIAN_POINT('',(-9.00000000000031,37.998285168417,-1.10218211923261E-15));
#427=CARTESIAN_POINT('Origin',(-3.97903932025655E-13,37.9982851684171,0.));
#428=CARTESIAN_POINT('Origin',(-3.97903932025655E-13,37.9982851684171,0.));
#429=CARTESIAN_POINT('Origin',(-2.93187645419022E-13,27.9982851684172,0.));
#430=CARTESIAN_POINT('Origin',(-3.92668117695322E-13,37.498285168417,0.));
#431=CARTESIAN_POINT('',(9.99999999999983,36.9982851684169,0.));
#432=CARTESIAN_POINT('',(-10.0000000000006,36.9982851684167,-1.22464679914738E-15));
#433=CARTESIAN_POINT('Origin',(-3.87432303364989E-13,36.9982851684168,0.));
#434=CARTESIAN_POINT('Origin',(-3.87432303364989E-13,36.9982851684168,0.));
#435=CARTESIAN_POINT('',(-9.50000000000044,37.4982851684169,-1.16341445918999E-15));
#436=CARTESIAN_POINT('Origin',(-3.82196489034658E-13,36.498285168417,0.));
#437=CARTESIAN_POINT('',(9.99999999999983,35.9982851684172,0.));
#438=CARTESIAN_POINT('',(-10.0000000000006,35.998285168417,-1.22464679914738E-15));
#439=CARTESIAN_POINT('Origin',(-3.76960674704328E-13,35.9982851684171,0.));
#440=CARTESIAN_POINT('Origin',(-3.76960674704328E-13,35.9982851684171,0.));
#441=CARTESIAN_POINT('',(-10.0000000000006,36.4982851684169,-1.22464679914738E-15));
#442=CARTESIAN_POINT('Origin',(-3.35083138601453E-13,31.9991425842087,0.));
#443=CARTESIAN_POINT('',(27.4999999999998,28.0000000000007,0.));
#444=CARTESIAN_POINT('',(-27.5000000000004,28.,-3.36777869765523E-15));
#445=CARTESIAN_POINT('Origin',(-2.93205602498577E-13,28.0000000000004,0.));
#446=CARTESIAN_POINT('Origin',(-2.93205602498577E-13,28.0000000000004,0.));
#447=CARTESIAN_POINT('',(-18.7500000000004,31.9991425842085,-2.2962127484013E-15));
#448=CARTESIAN_POINT('Origin',(31.9999999999997,28.0000000000007,0.));
#449=CARTESIAN_POINT('',(36.4999999999997,28.0000000000008,0.));
#450=CARTESIAN_POINT('',(-36.5000000000003,28.,-4.46996081688784E-15));
#451=CARTESIAN_POINT('Origin',(-2.93205602498578E-13,28.0000000000004,0.));
#452=CARTESIAN_POINT('Origin',(-2.93205602498578E-13,28.0000000000004,0.));
#453=CARTESIAN_POINT('Origin',(-2.82733973837914E-13,27.0000000000004,0.));
#454=CARTESIAN_POINT('',(38.4999999999997,26.0000000000007,0.));
#455=CARTESIAN_POINT('',(-38.5000000000002,25.9999999999999,-4.7148901767173E-15));
#456=CARTESIAN_POINT('Origin',(-2.72262345177249E-13,26.0000000000003,0.));
#457=CARTESIAN_POINT('Origin',(-2.72262345177249E-13,26.0000000000003,0.));
#458=CARTESIAN_POINT('',(-37.5000000000002,27.,-4.59242549680256E-15));
#459=CARTESIAN_POINT('Origin',(-2.31946574833695E-13,22.1500000000002,0.));
#460=CARTESIAN_POINT('',(38.4999999999999,18.3000000000006,0.));
#461=CARTESIAN_POINT('',(-38.5000000000002,18.2999999999998,-4.71489017671731E-15));
#462=CARTESIAN_POINT('Origin',(-1.91630804490141E-13,18.3000000000002,0.));
#463=CARTESIAN_POINT('Origin',(-1.91630804490141E-13,18.3000000000002,0.));
#464=CARTESIAN_POINT('',(-38.5000000000002,22.1499999999998,-4.71489017671731E-15));
#465=CARTESIAN_POINT('Origin',(-1.90060060191042E-13,18.1500000000002,0.));
#466=CARTESIAN_POINT('',(-38.2000000000003,17.9999999999998,4.6781507727429E-15));
#467=CARTESIAN_POINT('',(-38.3500000000003,18.1499999999998,4.69652047473011E-15));
#468=CARTESIAN_POINT('',(38.1999999999999,18.0000000000006,0.));
#469=CARTESIAN_POINT('Origin',(-1.88489315891942E-13,18.0000000000002,0.));
#470=CARTESIAN_POINT('Origin',(-1.88489315891942E-13,18.0000000000002,0.));
#471=CARTESIAN_POINT('Origin',(34.35,18.0000000000006,0.));
#472=CARTESIAN_POINT('',(30.5,18.0000000000006,0.));
#473=CARTESIAN_POINT('',(-30.5000000000002,18.,-3.73517273739943E-15));
#474=CARTESIAN_POINT('Origin',(-1.88489315891943E-13,18.0000000000003,0.));
#475=CARTESIAN_POINT('Origin',(-1.88489315891943E-13,18.0000000000003,0.));
#476=CARTESIAN_POINT('Origin',(-9.42446579459701E-14,9.00000000000001,0.));
#477=CARTESIAN_POINT('',(30.4999999999998,2.8421709430404E-14,0.));
#478=CARTESIAN_POINT('',(-30.5,-6.10622663543836E-13,-3.73517273739943E-15));
#479=CARTESIAN_POINT('Origin',(3.04685612055169E-27,-2.90962964719825E-13,
0.));
#480=CARTESIAN_POINT('Origin',(3.04685612055169E-27,-2.90962964719825E-13,
0.));
#481=CARTESIAN_POINT('',(-30.5000000000001,8.99999999999969,-3.73517273739943E-15));
#482=CARTESIAN_POINT('Origin',(15.2499999999999,1.4210854715202E-14,0.));
#483=UNCERTAINTY_MEASURE_WITH_UNIT(LENGTH_MEASURE(0.01),#487,
'DISTANCE_ACCURACY_VALUE',
'Maximum model space distance between geometric entities at asserted c
onnectivities');
#484=UNCERTAINTY_MEASURE_WITH_UNIT(LENGTH_MEASURE(0.01),#487,
'DISTANCE_ACCURACY_VALUE',
'Maximum model space distance between geometric entities at asserted c
onnectivities');
#485=(
GEOMETRIC_REPRESENTATION_CONTEXT(3)
GLOBAL_UNCERTAINTY_ASSIGNED_CONTEXT((#483))
GLOBAL_UNIT_ASSIGNED_CONTEXT((#487,#489,#490))
REPRESENTATION_CONTEXT('','3D')
);
#486=(
GEOMETRIC_REPRESENTATION_CONTEXT(3)
GLOBAL_UNCERTAINTY_ASSIGNED_CONTEXT((#484))
GLOBAL_UNIT_ASSIGNED_CONTEXT((#487,#489,#490))
REPRESENTATION_CONTEXT('','3D')
);
#487=(
LENGTH_UNIT()
NAMED_UNIT(*)
SI_UNIT(.MILLI.,.METRE.)
);
#488=(
LENGTH_UNIT()
NAMED_UNIT(*)
SI_UNIT(.CENTI.,.METRE.)
);
#489=(
NAMED_UNIT(*)
PLANE_ANGLE_UNIT()
SI_UNIT($,.RADIAN.)
);
#490=(
NAMED_UNIT(*)
SI_UNIT($,.STERADIAN.)
SOLID_ANGLE_UNIT()
);
#491=SHAPE_DEFINITION_REPRESENTATION(#492,#493);
#492=PRODUCT_DEFINITION_SHAPE('',$,#495);
#493=SHAPE_REPRESENTATION('',(#280),#485);
#494=PRODUCT_DEFINITION_CONTEXT('part definition',#499,'design');
#495=PRODUCT_DEFINITION('Pieza16','Pieza16',#496,#494);
#496=PRODUCT_DEFINITION_FORMATION('',$,#501);
#497=PRODUCT_RELATED_PRODUCT_CATEGORY('Pieza16','Pieza16',(#501));
#498=APPLICATION_PROTOCOL_DEFINITION('international standard',
'automotive_design',2009,#499);
#499=APPLICATION_CONTEXT(
'Core Data for Automotive Mechanical Design Process');
#500=PRODUCT_CONTEXT('part definition',#499,'mechanical');
#501=PRODUCT('Pieza16','Pieza16',$,(#500));
#502=PRESENTATION_STYLE_ASSIGNMENT((#506));
#503=PRESENTATION_STYLE_ASSIGNMENT((#507));
#504=PRESENTATION_STYLE_ASSIGNMENT((#508));
#505=PRESENTATION_STYLE_ASSIGNMENT((#509));
#506=SURFACE_STYLE_USAGE(.BOTH.,#518);
#507=SURFACE_STYLE_USAGE(.BOTH.,#519);
#508=SURFACE_STYLE_USAGE(.BOTH.,#520);
#509=SURFACE_STYLE_USAGE(.BOTH.,#521);
#510=SURFACE_STYLE_RENDERING_WITH_PROPERTIES($,#534,(#514));
#511=SURFACE_STYLE_RENDERING_WITH_PROPERTIES($,#535,(#515));
#512=SURFACE_STYLE_RENDERING_WITH_PROPERTIES($,#536,(#516));
#513=SURFACE_STYLE_RENDERING_WITH_PROPERTIES($,#537,(#517));
#514=SURFACE_STYLE_TRANSPARENT(0.);
#515=SURFACE_STYLE_TRANSPARENT(0.);
#516=SURFACE_STYLE_TRANSPARENT(0.);
#517=SURFACE_STYLE_TRANSPARENT(0.);
#518=SURFACE_SIDE_STYLE('',(#522,#510));
#519=SURFACE_SIDE_STYLE('',(#523,#511));
#520=SURFACE_SIDE_STYLE('',(#524,#512));
#521=SURFACE_SIDE_STYLE('',(#525,#513));
#522=SURFACE_STYLE_FILL_AREA(#526);
#523=SURFACE_STYLE_FILL_AREA(#527);
#524=SURFACE_STYLE_FILL_AREA(#528);
#525=SURFACE_STYLE_FILL_AREA(#529);
#526=FILL_AREA_STYLE('',(#530));
#527=FILL_AREA_STYLE('',(#531));
#528=FILL_AREA_STYLE('',(#532));
#529=FILL_AREA_STYLE('',(#533));
#530=FILL_AREA_STYLE_COLOUR('',#534);
#531=FILL_AREA_STYLE_COLOUR('',#535);
#532=FILL_AREA_STYLE_COLOUR('',#536);
#533=FILL_AREA_STYLE_COLOUR('',#537);
#534=COLOUR_RGB('',0.749019607843137,0.749019607843137,0.749019607843137);
#535=COLOUR_RGB('',0.,0.486274509803922,0.690196078431373);
#536=COLOUR_RGB('',0.0509803921568627,0.262745098039216,1.);
#537=COLOUR_RGB('',0.32156862745098,0.32156862745098,0.32156862745098);
ENDSEC;
END-ISO-10303-21;
