ISO-10303-21;
HEADER;
/* Generated by software containing ST-Developer
 * from STEP Tools, Inc. (www.steptools.com) 
 */

FILE_DESCRIPTION(
/* description */ (''),
/* implementation_level */ '2;1');

FILE_NAME(
/* name */ 
'C:\\Users\\enginyeria\\Desktop\\A corregir\\futuros STP\\vs20cn_rac90
r1-8m.stp',
/* time_stamp */ '2020-10-29T12:21:40+01:00',
/* author */ ('enginyeria'),
/* organization */ (''),
/* preprocessor_version */ 'ST-DEVELOPER v17.2',
/* originating_system */ 'Autodesk Inventor 2019',
/* authorisation */ '');

FILE_SCHEMA (('CONFIG_CONTROL_DESIGN'));
ENDSEC;

DATA;
#10=MECHANICAL_DESIGN_GEOMETRIC_PRESENTATION_REPRESENTATION('',(#245,#246,
#247,#248,#249,#250,#251,#252,#253,#254,#255,#256,#257,#258,#259,#260),
#542);
#11=SHAPE_REPRESENTATION_RELATIONSHIP('SRR','None',#549,#12);
#12=ADVANCED_BREP_SHAPE_REPRESENTATION('',(#13),#541);
#13=MANIFOLD_SOLID_BREP('S\X\F3lido2',#276);
#14=TOROIDAL_SURFACE('',#334,7.33192453190316,2.79978421696558);
#15=(
BOUNDED_SURFACE()
B_SPLINE_SURFACE(2,2,((#498,#499,#500,#501,#502,#503,#504,#505,#506),(#507,
#508,#509,#510,#511,#512,#513,#514,#515),(#516,#517,#518,#519,#520,#521,
#522,#523,#524)),.UNSPECIFIED.,.F.,.T.,.F.)
B_SPLINE_SURFACE_WITH_KNOTS((3,3),(3,2,2,2,3),(0.22431665206861,1.05400883036672),
(-3.14159265358979,-1.5707963267949,0.,1.5707963267949,3.14159265358979),
 .UNSPECIFIED.)
GEOMETRIC_REPRESENTATION_ITEM()
RATIONAL_B_SPLINE_SURFACE(((1.,0.707106781186548,1.,0.707106781186548,1.,
0.707106781186548,1.,0.707106781186548,1.),(0.915178364960772,0.647128827858979,
0.915178364960772,0.647128827858979,0.915178364960772,0.647128827858979,
0.915178364960772,0.647128827858979,0.915178364960772),(1.,0.707106781186548,
1.,0.707106781186548,1.,0.707106781186548,1.,0.707106781186548,1.)))
REPRESENTATION_ITEM('')
SURFACE()
);
#16=FACE_BOUND('',#49,.T.);
#17=FACE_BOUND('',#54,.T.);
#18=FACE_BOUND('',#57,.T.);
#19=FACE_BOUND('',#60,.T.);
#20=PLANE('',#301);
#21=PLANE('',#304);
#22=PLANE('',#311);
#23=PLANE('',#317);
#24=PLANE('',#323);
#25=PLANE('',#338);
#26=CYLINDRICAL_SURFACE('',#299,2.);
#27=CYLINDRICAL_SURFACE('',#308,4.86400000000005);
#28=CYLINDRICAL_SURFACE('',#314,4.28300000000004);
#29=CYLINDRICAL_SURFACE('',#320,6.00000000000003);
#30=CYLINDRICAL_SURFACE('',#326,6.25000000000005);
#31=FACE_OUTER_BOUND('',#46,.T.);
#32=FACE_OUTER_BOUND('',#47,.T.);
#33=FACE_OUTER_BOUND('',#48,.T.);
#34=FACE_OUTER_BOUND('',#50,.T.);
#35=FACE_OUTER_BOUND('',#51,.T.);
#36=FACE_OUTER_BOUND('',#52,.T.);
#37=FACE_OUTER_BOUND('',#53,.T.);
#38=FACE_OUTER_BOUND('',#55,.T.);
#39=FACE_OUTER_BOUND('',#56,.T.);
#40=FACE_OUTER_BOUND('',#58,.T.);
#41=FACE_OUTER_BOUND('',#59,.T.);
#42=FACE_OUTER_BOUND('',#61,.T.);
#43=FACE_OUTER_BOUND('',#62,.T.);
#44=FACE_OUTER_BOUND('',#63,.T.);
#45=FACE_OUTER_BOUND('',#64,.T.);
#46=EDGE_LOOP('',(#171,#172,#173,#174));
#47=EDGE_LOOP('',(#175,#176,#177,#178));
#48=EDGE_LOOP('',(#179,#180));
#49=EDGE_LOOP('',(#181));
#50=EDGE_LOOP('',(#182));
#51=EDGE_LOOP('',(#183,#184,#185,#186,#187,#188));
#52=EDGE_LOOP('',(#189,#190,#191,#192,#193,#194));
#53=EDGE_LOOP('',(#195,#196));
#54=EDGE_LOOP('',(#197,#198));
#55=EDGE_LOOP('',(#199,#200,#201,#202,#203,#204));
#56=EDGE_LOOP('',(#205,#206));
#57=EDGE_LOOP('',(#207,#208));
#58=EDGE_LOOP('',(#209,#210,#211,#212,#213,#214));
#59=EDGE_LOOP('',(#215,#216));
#60=EDGE_LOOP('',(#217,#218));
#61=EDGE_LOOP('',(#219,#220,#221,#222,#223,#224,#225));
#62=EDGE_LOOP('',(#226,#227,#228,#229,#230,#231,#232,#233));
#63=EDGE_LOOP('',(#234,#235,#236,#237,#238,#239,#240));
#64=EDGE_LOOP('',(#241,#242));
#65=LINE('',#439,#72);
#66=LINE('',#444,#73);
#67=LINE('',#456,#74);
#68=LINE('',#462,#75);
#69=LINE('',#473,#76);
#70=LINE('',#484,#77);
#71=LINE('',#497,#78);
#72=VECTOR('',#345,2.15);
#73=VECTOR('',#352,2.);
#74=VECTOR('',#367,4.57350000000002);
#75=VECTOR('',#374,4.86400000000005);
#76=VECTOR('',#387,4.28300000000004);
#77=VECTOR('',#400,6.00000000000003);
#78=VECTOR('',#415,6.25000000000005);
#79=CIRCLE('',#297,2.);
#80=CIRCLE('',#298,2.3);
#81=CIRCLE('',#300,2.);
#82=CIRCLE('',#302,4.28300000000002);
#83=CIRCLE('',#303,4.28300000000002);
#84=CIRCLE('',#306,4.86400000000003);
#85=CIRCLE('',#307,4.86400000000003);
#86=CIRCLE('',#309,4.86400000000005);
#87=CIRCLE('',#310,4.86400000000005);
#88=CIRCLE('',#312,4.28300000000004);
#89=CIRCLE('',#313,4.28300000000004);
#90=CIRCLE('',#315,4.28300000000004);
#91=CIRCLE('',#316,4.28300000000004);
#92=CIRCLE('',#318,6.00000000000003);
#93=CIRCLE('',#319,6.00000000000003);
#94=CIRCLE('',#321,6.00000000000004);
#95=CIRCLE('',#322,6.00000000000004);
#96=CIRCLE('',#324,6.25000000000004);
#97=CIRCLE('',#325,6.25000000000004);
#98=CIRCLE('',#327,6.25000000000007);
#99=CIRCLE('',#328,6.25000000000007);
#100=CIRCLE('',#329,6.25000000000007);
#101=CIRCLE('',#330,9.00000000000005);
#102=CIRCLE('',#331,9.00000000000005);
#103=CIRCLE('',#332,5.71896032114694);
#104=CIRCLE('',#333,9.00000000000005);
#105=CIRCLE('',#335,10.0000000000001);
#106=CIRCLE('',#336,10.0000000000001);
#107=CIRCLE('',#337,2.79978421696558);
#108=VERTEX_POINT('',#436);
#109=VERTEX_POINT('',#438);
#110=VERTEX_POINT('',#442);
#111=VERTEX_POINT('',#446);
#112=VERTEX_POINT('',#447);
#113=VERTEX_POINT('',#452);
#114=VERTEX_POINT('',#453);
#115=VERTEX_POINT('',#458);
#116=VERTEX_POINT('',#459);
#117=VERTEX_POINT('',#464);
#118=VERTEX_POINT('',#465);
#119=VERTEX_POINT('',#469);
#120=VERTEX_POINT('',#470);
#121=VERTEX_POINT('',#475);
#122=VERTEX_POINT('',#476);
#123=VERTEX_POINT('',#480);
#124=VERTEX_POINT('',#481);
#125=VERTEX_POINT('',#486);
#126=VERTEX_POINT('',#487);
#127=VERTEX_POINT('',#491);
#128=VERTEX_POINT('',#492);
#129=VERTEX_POINT('',#494);
#130=VERTEX_POINT('',#525);
#131=VERTEX_POINT('',#526);
#132=VERTEX_POINT('',#528);
#133=VERTEX_POINT('',#533);
#134=VERTEX_POINT('',#534);
#135=EDGE_CURVE('',#108,#108,#79,.T.);
#136=EDGE_CURVE('',#108,#109,#65,.T.);
#137=EDGE_CURVE('',#109,#109,#80,.T.);
#138=EDGE_CURVE('',#110,#110,#81,.T.);
#139=EDGE_CURVE('',#110,#108,#66,.T.);
#140=EDGE_CURVE('',#111,#112,#82,.T.);
#141=EDGE_CURVE('',#112,#111,#83,.T.);
#142=EDGE_CURVE('',#113,#114,#84,.T.);
#143=EDGE_CURVE('',#114,#113,#85,.T.);
#144=EDGE_CURVE('',#114,#112,#67,.T.);
#145=EDGE_CURVE('',#115,#116,#86,.T.);
#146=EDGE_CURVE('',#116,#115,#87,.T.);
#147=EDGE_CURVE('',#116,#114,#68,.T.);
#148=EDGE_CURVE('',#117,#118,#88,.T.);
#149=EDGE_CURVE('',#118,#117,#89,.T.);
#150=EDGE_CURVE('',#119,#120,#90,.T.);
#151=EDGE_CURVE('',#120,#119,#91,.T.);
#152=EDGE_CURVE('',#120,#118,#69,.T.);
#153=EDGE_CURVE('',#121,#122,#92,.T.);
#154=EDGE_CURVE('',#122,#121,#93,.T.);
#155=EDGE_CURVE('',#123,#124,#94,.T.);
#156=EDGE_CURVE('',#124,#123,#95,.T.);
#157=EDGE_CURVE('',#124,#122,#70,.T.);
#158=EDGE_CURVE('',#125,#126,#96,.T.);
#159=EDGE_CURVE('',#126,#125,#97,.T.);
#160=EDGE_CURVE('',#127,#128,#98,.T.);
#161=EDGE_CURVE('',#129,#127,#99,.T.);
#162=EDGE_CURVE('',#128,#129,#100,.T.);
#163=EDGE_CURVE('',#128,#126,#71,.T.);
#164=EDGE_CURVE('',#130,#131,#101,.T.);
#165=EDGE_CURVE('',#132,#130,#102,.T.);
#166=EDGE_CURVE('',#132,#129,#103,.T.);
#167=EDGE_CURVE('',#131,#132,#104,.T.);
#168=EDGE_CURVE('',#133,#134,#105,.T.);
#169=EDGE_CURVE('',#134,#133,#106,.T.);
#170=EDGE_CURVE('',#134,#131,#107,.T.);
#171=ORIENTED_EDGE('',*,*,#135,.T.);
#172=ORIENTED_EDGE('',*,*,#136,.T.);
#173=ORIENTED_EDGE('',*,*,#137,.T.);
#174=ORIENTED_EDGE('',*,*,#136,.F.);
#175=ORIENTED_EDGE('',*,*,#138,.F.);
#176=ORIENTED_EDGE('',*,*,#139,.T.);
#177=ORIENTED_EDGE('',*,*,#135,.F.);
#178=ORIENTED_EDGE('',*,*,#139,.F.);
#179=ORIENTED_EDGE('',*,*,#140,.F.);
#180=ORIENTED_EDGE('',*,*,#141,.F.);
#181=ORIENTED_EDGE('',*,*,#137,.F.);
#182=ORIENTED_EDGE('',*,*,#138,.T.);
#183=ORIENTED_EDGE('',*,*,#142,.F.);
#184=ORIENTED_EDGE('',*,*,#143,.F.);
#185=ORIENTED_EDGE('',*,*,#144,.T.);
#186=ORIENTED_EDGE('',*,*,#141,.T.);
#187=ORIENTED_EDGE('',*,*,#140,.T.);
#188=ORIENTED_EDGE('',*,*,#144,.F.);
#189=ORIENTED_EDGE('',*,*,#145,.F.);
#190=ORIENTED_EDGE('',*,*,#146,.F.);
#191=ORIENTED_EDGE('',*,*,#147,.T.);
#192=ORIENTED_EDGE('',*,*,#143,.T.);
#193=ORIENTED_EDGE('',*,*,#142,.T.);
#194=ORIENTED_EDGE('',*,*,#147,.F.);
#195=ORIENTED_EDGE('',*,*,#145,.T.);
#196=ORIENTED_EDGE('',*,*,#146,.T.);
#197=ORIENTED_EDGE('',*,*,#148,.F.);
#198=ORIENTED_EDGE('',*,*,#149,.F.);
#199=ORIENTED_EDGE('',*,*,#150,.F.);
#200=ORIENTED_EDGE('',*,*,#151,.F.);
#201=ORIENTED_EDGE('',*,*,#152,.T.);
#202=ORIENTED_EDGE('',*,*,#149,.T.);
#203=ORIENTED_EDGE('',*,*,#148,.T.);
#204=ORIENTED_EDGE('',*,*,#152,.F.);
#205=ORIENTED_EDGE('',*,*,#153,.F.);
#206=ORIENTED_EDGE('',*,*,#154,.F.);
#207=ORIENTED_EDGE('',*,*,#150,.T.);
#208=ORIENTED_EDGE('',*,*,#151,.T.);
#209=ORIENTED_EDGE('',*,*,#155,.F.);
#210=ORIENTED_EDGE('',*,*,#156,.F.);
#211=ORIENTED_EDGE('',*,*,#157,.T.);
#212=ORIENTED_EDGE('',*,*,#154,.T.);
#213=ORIENTED_EDGE('',*,*,#153,.T.);
#214=ORIENTED_EDGE('',*,*,#157,.F.);
#215=ORIENTED_EDGE('',*,*,#158,.F.);
#216=ORIENTED_EDGE('',*,*,#159,.F.);
#217=ORIENTED_EDGE('',*,*,#155,.T.);
#218=ORIENTED_EDGE('',*,*,#156,.T.);
#219=ORIENTED_EDGE('',*,*,#160,.F.);
#220=ORIENTED_EDGE('',*,*,#161,.F.);
#221=ORIENTED_EDGE('',*,*,#162,.F.);
#222=ORIENTED_EDGE('',*,*,#163,.T.);
#223=ORIENTED_EDGE('',*,*,#159,.T.);
#224=ORIENTED_EDGE('',*,*,#158,.T.);
#225=ORIENTED_EDGE('',*,*,#163,.F.);
#226=ORIENTED_EDGE('',*,*,#164,.F.);
#227=ORIENTED_EDGE('',*,*,#165,.F.);
#228=ORIENTED_EDGE('',*,*,#166,.T.);
#229=ORIENTED_EDGE('',*,*,#161,.T.);
#230=ORIENTED_EDGE('',*,*,#160,.T.);
#231=ORIENTED_EDGE('',*,*,#162,.T.);
#232=ORIENTED_EDGE('',*,*,#166,.F.);
#233=ORIENTED_EDGE('',*,*,#167,.F.);
#234=ORIENTED_EDGE('',*,*,#168,.F.);
#235=ORIENTED_EDGE('',*,*,#169,.F.);
#236=ORIENTED_EDGE('',*,*,#170,.T.);
#237=ORIENTED_EDGE('',*,*,#167,.T.);
#238=ORIENTED_EDGE('',*,*,#165,.T.);
#239=ORIENTED_EDGE('',*,*,#164,.T.);
#240=ORIENTED_EDGE('',*,*,#170,.F.);
#241=ORIENTED_EDGE('',*,*,#168,.T.);
#242=ORIENTED_EDGE('',*,*,#169,.T.);
#243=CONICAL_SURFACE('',#296,2.15,0.785398163397447);
#244=CONICAL_SURFACE('',#305,4.57350000000002,0.785398163397452);
#245=STYLED_ITEM('',(#559),#261);
#246=STYLED_ITEM('',(#559),#262);
#247=STYLED_ITEM('',(#559),#263);
#248=STYLED_ITEM('',(#559),#264);
#249=STYLED_ITEM('',(#559),#265);
#250=STYLED_ITEM('',(#559),#266);
#251=STYLED_ITEM('',(#559),#267);
#252=STYLED_ITEM('',(#559),#268);
#253=STYLED_ITEM('',(#559),#269);
#254=STYLED_ITEM('',(#559),#270);
#255=STYLED_ITEM('',(#560),#271);
#256=STYLED_ITEM('',(#560),#272);
#257=STYLED_ITEM('',(#560),#273);
#258=STYLED_ITEM('',(#560),#274);
#259=STYLED_ITEM('',(#560),#275);
#260=STYLED_ITEM('',(#558),#13);
#261=ADVANCED_FACE('',(#31),#243,.F.);
#262=ADVANCED_FACE('',(#32),#26,.F.);
#263=ADVANCED_FACE('',(#33,#16),#20,.T.);
#264=ADVANCED_FACE('',(#34),#21,.F.);
#265=ADVANCED_FACE('',(#35),#244,.T.);
#266=ADVANCED_FACE('',(#36),#27,.T.);
#267=ADVANCED_FACE('',(#37,#17),#22,.T.);
#268=ADVANCED_FACE('',(#38),#28,.T.);
#269=ADVANCED_FACE('',(#39,#18),#23,.T.);
#270=ADVANCED_FACE('',(#40),#29,.T.);
#271=ADVANCED_FACE('',(#41,#19),#24,.T.);
#272=ADVANCED_FACE('',(#42),#30,.T.);
#273=ADVANCED_FACE('',(#43),#15,.F.);
#274=ADVANCED_FACE('',(#44),#14,.T.);
#275=ADVANCED_FACE('',(#45),#25,.T.);
#276=CLOSED_SHELL('',(#261,#262,#263,#264,#265,#266,#267,#268,#269,#270,
#271,#272,#273,#274,#275));
#277=DERIVED_UNIT_ELEMENT(#279,1.);
#278=DERIVED_UNIT_ELEMENT(#544,3.);
#279=(
MASS_UNIT()
NAMED_UNIT(*)
SI_UNIT($,.GRAM.)
);
#280=DERIVED_UNIT((#277,#278));
#281=MEASURE_REPRESENTATION_ITEM('density measure',
POSITIVE_RATIO_MEASURE(1.),#280);
#282=PROPERTY_DEFINITION_REPRESENTATION(#287,#284);
#283=PROPERTY_DEFINITION_REPRESENTATION(#288,#285);
#284=REPRESENTATION('material name',(#286),#541);
#285=REPRESENTATION('density',(#281),#541);
#286=DESCRIPTIVE_REPRESENTATION_ITEM('Generic','Generic');
#287=PROPERTY_DEFINITION('material property','material name',#551);
#288=PROPERTY_DEFINITION('material property','density of part',#551);
#289=DATE_TIME_ROLE('creation_date');
#290=CC_DESIGN_DATE_AND_TIME_ASSIGNMENT(#291,#289,(#551));
#291=DATE_AND_TIME(#292,#293);
#292=CALENDAR_DATE(2020,31,3);
#293=LOCAL_TIME(8,58,14.,#294);
#294=COORDINATED_UNIVERSAL_TIME_OFFSET(0,0,.BEHIND.);
#295=AXIS2_PLACEMENT_3D('placement',#434,#339,#340);
#296=AXIS2_PLACEMENT_3D('',#435,#341,#342);
#297=AXIS2_PLACEMENT_3D('',#437,#343,#344);
#298=AXIS2_PLACEMENT_3D('',#440,#346,#347);
#299=AXIS2_PLACEMENT_3D('',#441,#348,#349);
#300=AXIS2_PLACEMENT_3D('',#443,#350,#351);
#301=AXIS2_PLACEMENT_3D('',#445,#353,#354);
#302=AXIS2_PLACEMENT_3D('',#448,#355,#356);
#303=AXIS2_PLACEMENT_3D('',#449,#357,#358);
#304=AXIS2_PLACEMENT_3D('',#450,#359,#360);
#305=AXIS2_PLACEMENT_3D('',#451,#361,#362);
#306=AXIS2_PLACEMENT_3D('',#454,#363,#364);
#307=AXIS2_PLACEMENT_3D('',#455,#365,#366);
#308=AXIS2_PLACEMENT_3D('',#457,#368,#369);
#309=AXIS2_PLACEMENT_3D('',#460,#370,#371);
#310=AXIS2_PLACEMENT_3D('',#461,#372,#373);
#311=AXIS2_PLACEMENT_3D('',#463,#375,#376);
#312=AXIS2_PLACEMENT_3D('',#466,#377,#378);
#313=AXIS2_PLACEMENT_3D('',#467,#379,#380);
#314=AXIS2_PLACEMENT_3D('',#468,#381,#382);
#315=AXIS2_PLACEMENT_3D('',#471,#383,#384);
#316=AXIS2_PLACEMENT_3D('',#472,#385,#386);
#317=AXIS2_PLACEMENT_3D('',#474,#388,#389);
#318=AXIS2_PLACEMENT_3D('',#477,#390,#391);
#319=AXIS2_PLACEMENT_3D('',#478,#392,#393);
#320=AXIS2_PLACEMENT_3D('',#479,#394,#395);
#321=AXIS2_PLACEMENT_3D('',#482,#396,#397);
#322=AXIS2_PLACEMENT_3D('',#483,#398,#399);
#323=AXIS2_PLACEMENT_3D('',#485,#401,#402);
#324=AXIS2_PLACEMENT_3D('',#488,#403,#404);
#325=AXIS2_PLACEMENT_3D('',#489,#405,#406);
#326=AXIS2_PLACEMENT_3D('',#490,#407,#408);
#327=AXIS2_PLACEMENT_3D('',#493,#409,#410);
#328=AXIS2_PLACEMENT_3D('',#495,#411,#412);
#329=AXIS2_PLACEMENT_3D('',#496,#413,#414);
#330=AXIS2_PLACEMENT_3D('',#527,#416,#417);
#331=AXIS2_PLACEMENT_3D('',#529,#418,#419);
#332=AXIS2_PLACEMENT_3D('',#530,#420,#421);
#333=AXIS2_PLACEMENT_3D('',#531,#422,#423);
#334=AXIS2_PLACEMENT_3D('',#532,#424,#425);
#335=AXIS2_PLACEMENT_3D('',#535,#426,#427);
#336=AXIS2_PLACEMENT_3D('',#536,#428,#429);
#337=AXIS2_PLACEMENT_3D('',#537,#430,#431);
#338=AXIS2_PLACEMENT_3D('',#538,#432,#433);
#339=DIRECTION('axis',(0.,0.,1.));
#340=DIRECTION('refdir',(1.,0.,0.));
#341=DIRECTION('center_axis',(0.,1.,0.));
#342=DIRECTION('ref_axis',(-1.,0.,0.));
#343=DIRECTION('center_axis',(0.,-1.,0.));
#344=DIRECTION('ref_axis',(-1.,0.,0.));
#345=DIRECTION('',(0.707106781186547,0.707106781186549,-8.65956056235492E-17));
#346=DIRECTION('center_axis',(0.,1.,0.));
#347=DIRECTION('ref_axis',(-1.,0.,0.));
#348=DIRECTION('center_axis',(3.12988405878367E-15,1.,1.4641827082423E-17));
#349=DIRECTION('ref_axis',(-1.,3.12988405878367E-15,5.88784672006409E-16));
#350=DIRECTION('center_axis',(0.,1.,0.));
#351=DIRECTION('ref_axis',(1.,0.,0.));
#352=DIRECTION('',(3.12988405878367E-15,1.,1.4641827082423E-17));
#353=DIRECTION('center_axis',(0.,1.,0.));
#354=DIRECTION('ref_axis',(0.,0.,1.));
#355=DIRECTION('center_axis',(0.,-1.,0.));
#356=DIRECTION('ref_axis',(1.,0.,0.));
#357=DIRECTION('center_axis',(0.,-1.,0.));
#358=DIRECTION('ref_axis',(1.,0.,0.));
#359=DIRECTION('center_axis',(-2.22044604925031E-15,-1.,-8.32667268468867E-16));
#360=DIRECTION('ref_axis',(0.,8.32667268468867E-16,-1.));
#361=DIRECTION('center_axis',(0.,-1.,0.));
#362=DIRECTION('ref_axis',(1.,0.,0.));
#363=DIRECTION('center_axis',(0.,-1.,0.));
#364=DIRECTION('ref_axis',(1.,0.,0.));
#365=DIRECTION('center_axis',(0.,-1.,0.));
#366=DIRECTION('ref_axis',(1.,0.,0.));
#367=DIRECTION('',(0.70710678118655,0.707106781186545,8.65956056235496E-17));
#368=DIRECTION('center_axis',(0.,-1.,0.));
#369=DIRECTION('ref_axis',(1.,0.,0.));
#370=DIRECTION('center_axis',(0.,-1.,0.));
#371=DIRECTION('ref_axis',(1.,0.,0.));
#372=DIRECTION('center_axis',(0.,-1.,0.));
#373=DIRECTION('ref_axis',(1.,0.,0.));
#374=DIRECTION('',(0.,1.,0.));
#375=DIRECTION('center_axis',(0.,-1.,0.));
#376=DIRECTION('ref_axis',(0.,0.,-1.));
#377=DIRECTION('center_axis',(0.,-1.,0.));
#378=DIRECTION('ref_axis',(1.,0.,0.));
#379=DIRECTION('center_axis',(0.,-1.,0.));
#380=DIRECTION('ref_axis',(1.,0.,0.));
#381=DIRECTION('center_axis',(0.,-1.,0.));
#382=DIRECTION('ref_axis',(1.,0.,0.));
#383=DIRECTION('center_axis',(0.,-1.,0.));
#384=DIRECTION('ref_axis',(1.,0.,0.));
#385=DIRECTION('center_axis',(0.,-1.,0.));
#386=DIRECTION('ref_axis',(1.,0.,0.));
#387=DIRECTION('',(0.,1.,0.));
#388=DIRECTION('center_axis',(0.,1.,0.));
#389=DIRECTION('ref_axis',(0.,0.,1.));
#390=DIRECTION('center_axis',(0.,-1.,0.));
#391=DIRECTION('ref_axis',(1.,0.,0.));
#392=DIRECTION('center_axis',(0.,-1.,0.));
#393=DIRECTION('ref_axis',(1.,0.,0.));
#394=DIRECTION('center_axis',(0.,-1.,0.));
#395=DIRECTION('ref_axis',(1.,0.,0.));
#396=DIRECTION('center_axis',(0.,-1.,0.));
#397=DIRECTION('ref_axis',(1.,0.,0.));
#398=DIRECTION('center_axis',(0.,-1.,0.));
#399=DIRECTION('ref_axis',(1.,0.,0.));
#400=DIRECTION('',(0.,1.,0.));
#401=DIRECTION('center_axis',(0.,1.,0.));
#402=DIRECTION('ref_axis',(0.,0.,1.));
#403=DIRECTION('center_axis',(0.,-1.,0.));
#404=DIRECTION('ref_axis',(1.,0.,0.));
#405=DIRECTION('center_axis',(0.,-1.,0.));
#406=DIRECTION('ref_axis',(1.,0.,0.));
#407=DIRECTION('center_axis',(0.,-1.,0.));
#408=DIRECTION('ref_axis',(1.,0.,0.));
#409=DIRECTION('center_axis',(0.,-1.,0.));
#410=DIRECTION('ref_axis',(1.,0.,0.));
#411=DIRECTION('center_axis',(0.,-1.,0.));
#412=DIRECTION('ref_axis',(1.,0.,0.));
#413=DIRECTION('center_axis',(0.,-1.,0.));
#414=DIRECTION('ref_axis',(1.,0.,0.));
#415=DIRECTION('',(0.,1.,0.));
#416=DIRECTION('center_axis',(0.,-1.,0.));
#417=DIRECTION('ref_axis',(1.,0.,0.));
#418=DIRECTION('center_axis',(0.,-1.,0.));
#419=DIRECTION('ref_axis',(1.,0.,0.));
#420=DIRECTION('center_axis',(1.,-5.37438516590428E-15,-1.22464679914714E-16));
#421=DIRECTION('ref_axis',(-1.22464679914735E-16,-3.9197512825477E-15,-1.));
#422=DIRECTION('center_axis',(0.,-1.,0.));
#423=DIRECTION('ref_axis',(1.,0.,0.));
#424=DIRECTION('center_axis',(0.,-1.,0.));
#425=DIRECTION('ref_axis',(0.,0.,-1.));
#426=DIRECTION('center_axis',(0.,-1.,0.));
#427=DIRECTION('ref_axis',(1.,0.,0.));
#428=DIRECTION('center_axis',(0.,-1.,0.));
#429=DIRECTION('ref_axis',(1.,0.,0.));
#430=DIRECTION('center_axis',(-1.,0.,-1.22464679914735E-16));
#431=DIRECTION('ref_axis',(-1.22464679914735E-16,0.,1.));
#432=DIRECTION('center_axis',(0.,-1.,0.));
#433=DIRECTION('ref_axis',(0.,0.,-1.));
#434=CARTESIAN_POINT('',(0.,0.,0.));
#435=CARTESIAN_POINT('Origin',(5.636972E-14,17.85,0.));
#436=CARTESIAN_POINT('',(2.00000000000006,17.7,2.449294E-16));
#437=CARTESIAN_POINT('Origin',(5.589603E-14,17.7,0.));
#438=CARTESIAN_POINT('',(2.30000000000006,18.,-2.816688E-16));
#439=CARTESIAN_POINT('',(2.15000000000006,17.85,-2.63299061816681E-16));
#440=CARTESIAN_POINT('Origin',(5.684342E-14,18.,0.));
#441=CARTESIAN_POINT('Origin',(4.82947015711943E-14,15.35,-9.32639944012818E-16));
#442=CARTESIAN_POINT('',(2.00000000000004,13.,0.));
#443=CARTESIAN_POINT('Origin',(4.105358E-14,13.,0.));
#444=CARTESIAN_POINT('',(2.00000000000005,15.35,-2.35513864785511E-15));
#445=CARTESIAN_POINT('Origin',(2.14150000000006,18.,0.));
#446=CARTESIAN_POINT('',(4.28300000000007,18.,0.));
#447=CARTESIAN_POINT('',(-4.28299999999996,18.,-5.24516224074814E-16));
#448=CARTESIAN_POINT('Origin',(5.684342E-14,18.,0.));
#449=CARTESIAN_POINT('Origin',(5.684342E-14,18.,0.));
#450=CARTESIAN_POINT('Origin',(4.13558076672871E-14,13.,-2.));
#451=CARTESIAN_POINT('Origin',(5.592603E-14,17.7095,0.));
#452=CARTESIAN_POINT('',(4.86400000000009,17.419,0.));
#453=CARTESIAN_POINT('',(-4.86399999999997,17.419,-5.95668203105276E-16));
#454=CARTESIAN_POINT('Origin',(5.500864E-14,17.419,0.));
#455=CARTESIAN_POINT('Origin',(5.500864E-14,17.419,0.));
#456=CARTESIAN_POINT('',(-4.57349999999996,17.7095,-5.60092213590044E-16));
#457=CARTESIAN_POINT('Origin',(4.487314E-14,14.2095,0.));
#458=CARTESIAN_POINT('',(4.86400000000009,11.,0.));
#459=CARTESIAN_POINT('',(-4.86400000000001,11.,-5.95668203105279E-16));
#460=CARTESIAN_POINT('Origin',(3.473764E-14,11.,0.));
#461=CARTESIAN_POINT('Origin',(3.473764E-14,11.,0.));
#462=CARTESIAN_POINT('',(-4.86400000000001,14.2095,-5.95668203105279E-16));
#463=CARTESIAN_POINT('Origin',(4.57350000000008,11.,0.));
#464=CARTESIAN_POINT('',(4.28300000000007,11.,0.));
#465=CARTESIAN_POINT('',(-4.28300000000001,11.,-5.24516224074816E-16));
#466=CARTESIAN_POINT('Origin',(3.473764E-14,11.,0.));
#467=CARTESIAN_POINT('Origin',(3.473764E-14,11.,0.));
#468=CARTESIAN_POINT('Origin',(3.157968E-14,10.,0.));
#469=CARTESIAN_POINT('',(4.28300000000007,9.,0.));
#470=CARTESIAN_POINT('',(-4.28300000000001,9.00000000000001,-5.24516224074816E-16));
#471=CARTESIAN_POINT('Origin',(2.842171E-14,9.00000000000001,0.));
#472=CARTESIAN_POINT('Origin',(2.842171E-14,9.00000000000001,0.));
#473=CARTESIAN_POINT('',(-4.28300000000001,10.,-5.24516224074816E-16));
#474=CARTESIAN_POINT('Origin',(5.14150000000007,9.,0.));
#475=CARTESIAN_POINT('',(6.00000000000006,9.,0.));
#476=CARTESIAN_POINT('',(-6.00000000000001,9.00000000000002,-7.34788079488416E-16));
#477=CARTESIAN_POINT('Origin',(2.842171E-14,9.00000000000002,0.));
#478=CARTESIAN_POINT('Origin',(2.842171E-14,9.00000000000002,0.));
#479=CARTESIAN_POINT('Origin',(2.526374E-14,8.,0.));
#480=CARTESIAN_POINT('',(6.00000000000006,6.99999999999997,0.));
#481=CARTESIAN_POINT('',(-6.00000000000001,6.99999999999999,-7.34788079488416E-16));
#482=CARTESIAN_POINT('Origin',(2.210577E-14,6.99999999999999,0.));
#483=CARTESIAN_POINT('Origin',(2.210577E-14,6.99999999999999,0.));
#484=CARTESIAN_POINT('',(-6.00000000000001,8.,-7.34788079488416E-16));
#485=CARTESIAN_POINT('Origin',(6.12500000000006,6.99999999999999,0.));
#486=CARTESIAN_POINT('',(6.25000000000006,7.,0.));
#487=CARTESIAN_POINT('',(-6.25000000000003,7.00000000000002,-7.65404249467102E-16));
#488=CARTESIAN_POINT('Origin',(2.210577E-14,7.00000000000002,0.));
#489=CARTESIAN_POINT('Origin',(2.210577E-14,7.00000000000002,0.));
#490=CARTESIAN_POINT('Origin',(1.91057E-14,6.05,0.));
#491=CARTESIAN_POINT('',(6.25000000000009,5.09999999999996,0.));
#492=CARTESIAN_POINT('',(-6.25000000000003,5.09999999999998,-7.65404249467102E-16));
#493=CARTESIAN_POINT('Origin',(1.610564E-14,5.09999999999998,0.));
#494=CARTESIAN_POINT('',(3.34290405693191E-14,5.09999999999998,-6.25000000000007));
#495=CARTESIAN_POINT('Origin',(1.610564E-14,5.09999999999998,0.));
#496=CARTESIAN_POINT('Origin',(1.610564E-14,5.09999999999998,0.));
#497=CARTESIAN_POINT('',(-6.25000000000003,6.05,-7.65404249467102E-16));
#498=CARTESIAN_POINT('Ctrl Pts',(1.43092197049403E-14,1.39999999999995,
-9.00000000000009));
#499=CARTESIAN_POINT('Ctrl Pts',(-9.00000000000004,1.4,-9.00000000000008));
#500=CARTESIAN_POINT('Ctrl Pts',(-9.00000000000004,1.40000000000003,-2.71916410667193E-14));
#501=CARTESIAN_POINT('Ctrl Pts',(-9.00000000000004,1.40000000000007,9.00000000000003));
#502=CARTESIAN_POINT('Ctrl Pts',(1.43092197049403E-14,1.40000000000002,
9.00000000000003));
#503=CARTESIAN_POINT('Ctrl Pts',(9.00000000000007,1.39999999999997,9.00000000000003));
#504=CARTESIAN_POINT('Ctrl Pts',(9.00000000000007,1.39999999999994,-2.71916410667189E-14));
#505=CARTESIAN_POINT('Ctrl Pts',(9.00000000000007,1.3999999999999,-9.00000000000008));
#506=CARTESIAN_POINT('Ctrl Pts',(1.43092197049403E-14,1.39999999999995,
-9.00000000000009));
#507=CARTESIAN_POINT('Ctrl Pts',(2.75063277560175E-14,3.85555680206937,
-8.43974915187527));
#508=CARTESIAN_POINT('Ctrl Pts',(-8.43974915187521,3.85555680206942,-8.43974915187527));
#509=CARTESIAN_POINT('Ctrl Pts',(-8.43974915187521,3.85555680206945,-3.68182813516086E-14));
#510=CARTESIAN_POINT('Ctrl Pts',(-8.43974915187521,3.85555680206948,8.4397491518752));
#511=CARTESIAN_POINT('Ctrl Pts',(2.75063277560175E-14,3.85555680206944,
8.4397491518752));
#512=CARTESIAN_POINT('Ctrl Pts',(8.43974915187526,3.85555680206939,8.4397491518752));
#513=CARTESIAN_POINT('Ctrl Pts',(8.43974915187527,3.85555680206936,-3.68182813516082E-14));
#514=CARTESIAN_POINT('Ctrl Pts',(8.43974915187526,3.85555680206932,-8.43974915187527));
#515=CARTESIAN_POINT('Ctrl Pts',(2.75063277560175E-14,3.85555680206937,
-8.43974915187527));
#516=CARTESIAN_POINT('Ctrl Pts',(3.41944448187862E-14,5.09999999999998,
-6.25000000000006));
#517=CARTESIAN_POINT('Ctrl Pts',(-6.24999999999998,5.10000000000002,-6.25000000000006));
#518=CARTESIAN_POINT('Ctrl Pts',(-6.24999999999998,5.10000000000004,-4.16969333181846E-14));
#519=CARTESIAN_POINT('Ctrl Pts',(-6.24999999999998,5.10000000000007,6.24999999999998));
#520=CARTESIAN_POINT('Ctrl Pts',(3.41944448187862E-14,5.10000000000003,
6.24999999999998));
#521=CARTESIAN_POINT('Ctrl Pts',(6.25000000000005,5.1,6.24999999999998));
#522=CARTESIAN_POINT('Ctrl Pts',(6.25000000000005,5.09999999999997,-4.16969333181843E-14));
#523=CARTESIAN_POINT('Ctrl Pts',(6.25000000000005,5.09999999999995,-6.25000000000006));
#524=CARTESIAN_POINT('Ctrl Pts',(3.41944448187862E-14,5.09999999999998,
-6.25000000000006));
#525=CARTESIAN_POINT('',(9.00000000000005,1.40000000000002,0.));
#526=CARTESIAN_POINT('',(-3.32262811923262E-15,1.40000000000005,9.00000000000005));
#527=CARTESIAN_POINT('Origin',(4.421155E-15,1.40000000000005,0.));
#528=CARTESIAN_POINT('',(1.32070375857082E-14,1.40000000000005,-9.00000000000005));
#529=CARTESIAN_POINT('Origin',(4.421155E-15,1.40000000000005,0.));
#530=CARTESIAN_POINT('Origin',(7.0529630498049E-15,0.127873399259803,-3.42432057354967));
#531=CARTESIAN_POINT('Origin',(4.421155E-15,1.40000000000005,0.));
#532=CARTESIAN_POINT('Origin',(-2.220446E-15,-0.848625334354898,0.));
#533=CARTESIAN_POINT('',(10.0000000000001,0.,0.));
#534=CARTESIAN_POINT('',(-3.44509279914737E-15,3.1641356201817E-14,10.0000000000001));
#535=CARTESIAN_POINT('Origin',(9.97276E-29,3.157968E-14,0.));
#536=CARTESIAN_POINT('Origin',(9.97276E-29,3.157968E-14,0.));
#537=CARTESIAN_POINT('Origin',(-3.11834779095852E-15,-0.848625334354898,
7.33192453190316));
#538=CARTESIAN_POINT('Origin',(5.00000000000003,0.,0.));
#539=UNCERTAINTY_MEASURE_WITH_UNIT(LENGTH_MEASURE(0.01),#543,
'DISTANCE_ACCURACY_VALUE',
'Maximum model space distance between geometric entities at asserted c
onnectivities');
#540=UNCERTAINTY_MEASURE_WITH_UNIT(LENGTH_MEASURE(0.01),#543,
'DISTANCE_ACCURACY_VALUE',
'Maximum model space distance between geometric entities at asserted c
onnectivities');
#541=(
GEOMETRIC_REPRESENTATION_CONTEXT(3)
GLOBAL_UNCERTAINTY_ASSIGNED_CONTEXT((#539))
GLOBAL_UNIT_ASSIGNED_CONTEXT((#543,#545,#546))
REPRESENTATION_CONTEXT('','3D')
);
#542=(
GEOMETRIC_REPRESENTATION_CONTEXT(3)
GLOBAL_UNCERTAINTY_ASSIGNED_CONTEXT((#540))
GLOBAL_UNIT_ASSIGNED_CONTEXT((#543,#545,#546))
REPRESENTATION_CONTEXT('','3D')
);
#543=(
LENGTH_UNIT()
NAMED_UNIT(*)
SI_UNIT(.MILLI.,.METRE.)
);
#544=(
LENGTH_UNIT()
NAMED_UNIT(*)
SI_UNIT(.CENTI.,.METRE.)
);
#545=(
NAMED_UNIT(*)
PLANE_ANGLE_UNIT()
SI_UNIT($,.RADIAN.)
);
#546=(
NAMED_UNIT(*)
SI_UNIT($,.STERADIAN.)
SOLID_ANGLE_UNIT()
);
#547=SHAPE_DEFINITION_REPRESENTATION(#548,#549);
#548=PRODUCT_DEFINITION_SHAPE('',$,#551);
#549=SHAPE_REPRESENTATION('',(#295),#541);
#550=DESIGN_CONTEXT('part definition',#555,'design');
#551=PRODUCT_DEFINITION('vs20cn_rac90r1-8m','vs20cn_rac90r1-8m',#552,#550);
#552=PRODUCT_DEFINITION_FORMATION('',$,#557);
#553=PRODUCT_RELATED_PRODUCT_CATEGORY('vs20cn_rac90r1-8m',
'vs20cn_rac90r1-8m',(#557));
#554=APPLICATION_PROTOCOL_DEFINITION('international standard',
'ap203_configuration_controlled_3d_design_of_mechanical_parts_and_asse
mblies_mim_lf',2004,#555);
#555=APPLICATION_CONTEXT(
'Configuration Controlled 3D Design of Mechanical Parts and Assemblies');
#556=MECHANICAL_CONTEXT('part definition',#555,'mechanical');
#557=PRODUCT('vs20cn_rac90r1-8m','vs20cn_rac90r1-8m',$,(#556));
#558=PRESENTATION_STYLE_ASSIGNMENT((#561));
#559=PRESENTATION_STYLE_ASSIGNMENT((#562));
#560=PRESENTATION_STYLE_ASSIGNMENT((#563));
#561=SURFACE_STYLE_USAGE(.BOTH.,#570);
#562=SURFACE_STYLE_USAGE(.BOTH.,#571);
#563=SURFACE_STYLE_USAGE(.BOTH.,#572);
#564=SURFACE_STYLE_RENDERING_WITH_PROPERTIES($,#582,(#567));
#565=SURFACE_STYLE_RENDERING_WITH_PROPERTIES($,#583,(#568));
#566=SURFACE_STYLE_RENDERING_WITH_PROPERTIES($,#584,(#569));
#567=SURFACE_STYLE_TRANSPARENT(0.);
#568=SURFACE_STYLE_TRANSPARENT(0.);
#569=SURFACE_STYLE_TRANSPARENT(0.);
#570=SURFACE_SIDE_STYLE('',(#573,#564));
#571=SURFACE_SIDE_STYLE('',(#574,#565));
#572=SURFACE_SIDE_STYLE('',(#575,#566));
#573=SURFACE_STYLE_FILL_AREA(#576);
#574=SURFACE_STYLE_FILL_AREA(#577);
#575=SURFACE_STYLE_FILL_AREA(#578);
#576=FILL_AREA_STYLE('',(#579));
#577=FILL_AREA_STYLE('',(#580));
#578=FILL_AREA_STYLE('',(#581));
#579=FILL_AREA_STYLE_COLOUR('',#582);
#580=FILL_AREA_STYLE_COLOUR('',#583);
#581=FILL_AREA_STYLE_COLOUR('',#584);
#582=COLOUR_RGB('',0.749019607843137,0.749019607843137,0.749019607843137);
#583=COLOUR_RGB('',0.745098039215686,0.737254901960784,0.729411764705882);
#584=COLOUR_RGB('',0.250980392156863,0.486274509803922,0.607843137254902);
ENDSEC;
END-ISO-10303-21;
