ISO-10303-21;
HEADER;
/* Generated by software containing ST-Developer
 * from STEP Tools, Inc. (www.steptools.com) 
 */

FILE_DESCRIPTION(
/* description */ (''),
/* implementation_level */ '2;1');

FILE_NAME(
/* name */ 
'C:\\Users\\nebuc\\OneDrive\\Escritorio\\AR VC Cups\\VS NIT\\vs23nit.s
tp',
/* time_stamp */ '2020-03-26T11:38:10+01:00',
/* author */ ('nebuc'),
/* organization */ (''),
/* preprocessor_version */ 'ST-DEVELOPER v17',
/* originating_system */ 'Autodesk Inventor 2019',
/* authorisation */ '');

FILE_SCHEMA (('AUTOMOTIVE_DESIGN { 1 0 10303 214 3 1 1 }'));
ENDSEC;

DATA;
#10=MECHANICAL_DESIGN_GEOMETRIC_PRESENTATION_REPRESENTATION('',(#156,#157,
#158,#159,#160,#161,#162,#163,#164,#165),#338);
#11=SHAPE_REPRESENTATION_RELATIONSHIP('SRR','None',#345,#12);
#12=ADVANCED_BREP_SHAPE_REPRESENTATION('',(#13),#337);
#13=MANIFOLD_SOLID_BREP('Solid1',#175);
#14=CONICAL_SURFACE('',#219,7.,0.694738276196703);
#15=FACE_BOUND('',#36,.T.);
#16=TOROIDAL_SURFACE('',#201,7.49138387901405,3.20999757892614);
#17=TOROIDAL_SURFACE('',#208,9.8520921611439,1.64797860303644);
#18=PLANE('',#200);
#19=PLANE('',#212);
#20=PLANE('',#213);
#21=FACE_OUTER_BOUND('',#30,.T.);
#22=FACE_OUTER_BOUND('',#31,.T.);
#23=FACE_OUTER_BOUND('',#32,.T.);
#24=FACE_OUTER_BOUND('',#33,.T.);
#25=FACE_OUTER_BOUND('',#34,.T.);
#26=FACE_OUTER_BOUND('',#35,.T.);
#27=FACE_OUTER_BOUND('',#37,.T.);
#28=FACE_OUTER_BOUND('',#38,.T.);
#29=FACE_OUTER_BOUND('',#39,.T.);
#30=EDGE_LOOP('',(#107,#108,#109,#110,#111,#112));
#31=EDGE_LOOP('',(#113,#114));
#32=EDGE_LOOP('',(#115,#116,#117,#118,#119,#120,#121));
#33=EDGE_LOOP('',(#122,#123,#124,#125,#126,#127));
#34=EDGE_LOOP('',(#128,#129));
#35=EDGE_LOOP('',(#130,#131));
#36=EDGE_LOOP('',(#132,#133));
#37=EDGE_LOOP('',(#134,#135,#136,#137,#138,#139));
#38=EDGE_LOOP('',(#140,#141,#142,#143,#144,#145));
#39=EDGE_LOOP('',(#146,#147,#148,#149,#150,#151,#152));
#40=LINE('',#292,#44);
#41=LINE('',#326,#45);
#42=LINE('',#332,#46);
#43=LINE('',#334,#47);
#44=VECTOR('',#231,3.9);
#45=VECTOR('',#274,5.75);
#46=VECTOR('',#281,7.);
#47=VECTOR('',#284,8.25);
#48=CIRCLE('',#196,3.9);
#49=CIRCLE('',#197,3.9);
#50=CIRCLE('',#198,3.9);
#51=CIRCLE('',#199,3.9);
#52=CIRCLE('',#202,10.5000000000001);
#53=CIRCLE('',#203,10.5000000000001);
#54=CIRCLE('',#204,3.20999757892614);
#55=CIRCLE('',#205,8.25);
#56=CIRCLE('',#206,8.25);
#57=CIRCLE('',#207,8.25);
#58=CIRCLE('',#209,11.5);
#59=CIRCLE('',#210,11.5);
#60=CIRCLE('',#211,1.64797860303644);
#61=CIRCLE('',#214,5.75);
#62=CIRCLE('',#215,5.75);
#63=CIRCLE('',#217,5.75);
#64=CIRCLE('',#218,5.75);
#65=CIRCLE('',#220,8.25);
#66=CIRCLE('',#221,8.25);
#67=VERTEX_POINT('',#287);
#68=VERTEX_POINT('',#288);
#69=VERTEX_POINT('',#291);
#70=VERTEX_POINT('',#293);
#71=VERTEX_POINT('',#298);
#72=VERTEX_POINT('',#299);
#73=VERTEX_POINT('',#302);
#74=VERTEX_POINT('',#304);
#75=VERTEX_POINT('',#306);
#76=VERTEX_POINT('',#310);
#77=VERTEX_POINT('',#311);
#78=VERTEX_POINT('',#317);
#79=VERTEX_POINT('',#318);
#80=VERTEX_POINT('',#322);
#81=VERTEX_POINT('',#323);
#82=VERTEX_POINT('',#328);
#83=VERTEX_POINT('',#329);
#84=EDGE_CURVE('',#67,#68,#48,.T.);
#85=EDGE_CURVE('',#68,#67,#49,.T.);
#86=EDGE_CURVE('',#68,#69,#40,.T.);
#87=EDGE_CURVE('',#70,#69,#50,.T.);
#88=EDGE_CURVE('',#69,#70,#51,.T.);
#89=EDGE_CURVE('',#71,#72,#52,.T.);
#90=EDGE_CURVE('',#72,#71,#53,.T.);
#91=EDGE_CURVE('',#72,#73,#54,.T.);
#92=EDGE_CURVE('',#73,#74,#55,.T.);
#93=EDGE_CURVE('',#74,#75,#56,.T.);
#94=EDGE_CURVE('',#75,#73,#57,.T.);
#95=EDGE_CURVE('',#76,#77,#58,.T.);
#96=EDGE_CURVE('',#77,#76,#59,.T.);
#97=EDGE_CURVE('',#77,#72,#60,.T.);
#98=EDGE_CURVE('',#78,#79,#61,.T.);
#99=EDGE_CURVE('',#79,#78,#62,.T.);
#100=EDGE_CURVE('',#80,#81,#63,.T.);
#101=EDGE_CURVE('',#81,#80,#64,.T.);
#102=EDGE_CURVE('',#81,#79,#41,.T.);
#103=EDGE_CURVE('',#82,#83,#65,.T.);
#104=EDGE_CURVE('',#83,#82,#66,.T.);
#105=EDGE_CURVE('',#83,#81,#42,.T.);
#106=EDGE_CURVE('',#75,#83,#43,.T.);
#107=ORIENTED_EDGE('',*,*,#84,.F.);
#108=ORIENTED_EDGE('',*,*,#85,.F.);
#109=ORIENTED_EDGE('',*,*,#86,.T.);
#110=ORIENTED_EDGE('',*,*,#87,.F.);
#111=ORIENTED_EDGE('',*,*,#88,.F.);
#112=ORIENTED_EDGE('',*,*,#86,.F.);
#113=ORIENTED_EDGE('',*,*,#87,.T.);
#114=ORIENTED_EDGE('',*,*,#88,.T.);
#115=ORIENTED_EDGE('',*,*,#89,.F.);
#116=ORIENTED_EDGE('',*,*,#90,.F.);
#117=ORIENTED_EDGE('',*,*,#91,.T.);
#118=ORIENTED_EDGE('',*,*,#92,.T.);
#119=ORIENTED_EDGE('',*,*,#93,.T.);
#120=ORIENTED_EDGE('',*,*,#94,.T.);
#121=ORIENTED_EDGE('',*,*,#91,.F.);
#122=ORIENTED_EDGE('',*,*,#95,.F.);
#123=ORIENTED_EDGE('',*,*,#96,.F.);
#124=ORIENTED_EDGE('',*,*,#97,.T.);
#125=ORIENTED_EDGE('',*,*,#90,.T.);
#126=ORIENTED_EDGE('',*,*,#89,.T.);
#127=ORIENTED_EDGE('',*,*,#97,.F.);
#128=ORIENTED_EDGE('',*,*,#95,.T.);
#129=ORIENTED_EDGE('',*,*,#96,.T.);
#130=ORIENTED_EDGE('',*,*,#98,.F.);
#131=ORIENTED_EDGE('',*,*,#99,.F.);
#132=ORIENTED_EDGE('',*,*,#84,.T.);
#133=ORIENTED_EDGE('',*,*,#85,.T.);
#134=ORIENTED_EDGE('',*,*,#100,.F.);
#135=ORIENTED_EDGE('',*,*,#101,.F.);
#136=ORIENTED_EDGE('',*,*,#102,.T.);
#137=ORIENTED_EDGE('',*,*,#99,.T.);
#138=ORIENTED_EDGE('',*,*,#98,.T.);
#139=ORIENTED_EDGE('',*,*,#102,.F.);
#140=ORIENTED_EDGE('',*,*,#103,.F.);
#141=ORIENTED_EDGE('',*,*,#104,.F.);
#142=ORIENTED_EDGE('',*,*,#105,.T.);
#143=ORIENTED_EDGE('',*,*,#101,.T.);
#144=ORIENTED_EDGE('',*,*,#100,.T.);
#145=ORIENTED_EDGE('',*,*,#105,.F.);
#146=ORIENTED_EDGE('',*,*,#93,.F.);
#147=ORIENTED_EDGE('',*,*,#92,.F.);
#148=ORIENTED_EDGE('',*,*,#94,.F.);
#149=ORIENTED_EDGE('',*,*,#106,.T.);
#150=ORIENTED_EDGE('',*,*,#104,.T.);
#151=ORIENTED_EDGE('',*,*,#103,.T.);
#152=ORIENTED_EDGE('',*,*,#106,.F.);
#153=CYLINDRICAL_SURFACE('',#195,3.9);
#154=CYLINDRICAL_SURFACE('',#216,5.75);
#155=CYLINDRICAL_SURFACE('',#222,8.25);
#156=STYLED_ITEM('',(#355),#166);
#157=STYLED_ITEM('',(#355),#167);
#158=STYLED_ITEM('',(#355),#168);
#159=STYLED_ITEM('',(#355),#169);
#160=STYLED_ITEM('',(#355),#170);
#161=STYLED_ITEM('',(#355),#171);
#162=STYLED_ITEM('',(#355),#172);
#163=STYLED_ITEM('',(#355),#173);
#164=STYLED_ITEM('',(#355),#174);
#165=STYLED_ITEM('',(#354),#13);
#166=ADVANCED_FACE('',(#21),#153,.F.);
#167=ADVANCED_FACE('',(#22),#18,.F.);
#168=ADVANCED_FACE('',(#23),#16,.T.);
#169=ADVANCED_FACE('',(#24),#17,.T.);
#170=ADVANCED_FACE('',(#25),#19,.T.);
#171=ADVANCED_FACE('',(#26,#15),#20,.T.);
#172=ADVANCED_FACE('',(#27),#154,.T.);
#173=ADVANCED_FACE('',(#28),#14,.T.);
#174=ADVANCED_FACE('',(#29),#155,.T.);
#175=CLOSED_SHELL('',(#166,#167,#168,#169,#170,#171,#172,#173,#174));
#176=DERIVED_UNIT_ELEMENT(#178,1.);
#177=DERIVED_UNIT_ELEMENT(#340,3.);
#178=(
MASS_UNIT()
NAMED_UNIT(*)
SI_UNIT($,.GRAM.)
);
#179=DERIVED_UNIT((#176,#177));
#180=MEASURE_REPRESENTATION_ITEM('density measure',
POSITIVE_RATIO_MEASURE(1.),#179);
#181=PROPERTY_DEFINITION_REPRESENTATION(#186,#183);
#182=PROPERTY_DEFINITION_REPRESENTATION(#187,#184);
#183=REPRESENTATION('material name',(#185),#337);
#184=REPRESENTATION('density',(#180),#337);
#185=DESCRIPTIVE_REPRESENTATION_ITEM('Generic','Generic');
#186=PROPERTY_DEFINITION('material property','material name',#347);
#187=PROPERTY_DEFINITION('material property','density of part',#347);
#188=DATE_TIME_ROLE('creation_date');
#189=APPLIED_DATE_AND_TIME_ASSIGNMENT(#190,#188,(#347));
#190=DATE_AND_TIME(#191,#192);
#191=CALENDAR_DATE(2007,2,11);
#192=LOCAL_TIME(11,48,3.,#193);
#193=COORDINATED_UNIVERSAL_TIME_OFFSET(0,0,.BEHIND.);
#194=AXIS2_PLACEMENT_3D('placement',#285,#223,#224);
#195=AXIS2_PLACEMENT_3D('',#286,#225,#226);
#196=AXIS2_PLACEMENT_3D('',#289,#227,#228);
#197=AXIS2_PLACEMENT_3D('',#290,#229,#230);
#198=AXIS2_PLACEMENT_3D('',#294,#232,#233);
#199=AXIS2_PLACEMENT_3D('',#295,#234,#235);
#200=AXIS2_PLACEMENT_3D('',#296,#236,#237);
#201=AXIS2_PLACEMENT_3D('',#297,#238,#239);
#202=AXIS2_PLACEMENT_3D('',#300,#240,#241);
#203=AXIS2_PLACEMENT_3D('',#301,#242,#243);
#204=AXIS2_PLACEMENT_3D('',#303,#244,#245);
#205=AXIS2_PLACEMENT_3D('',#305,#246,#247);
#206=AXIS2_PLACEMENT_3D('',#307,#248,#249);
#207=AXIS2_PLACEMENT_3D('',#308,#250,#251);
#208=AXIS2_PLACEMENT_3D('',#309,#252,#253);
#209=AXIS2_PLACEMENT_3D('',#312,#254,#255);
#210=AXIS2_PLACEMENT_3D('',#313,#256,#257);
#211=AXIS2_PLACEMENT_3D('',#314,#258,#259);
#212=AXIS2_PLACEMENT_3D('',#315,#260,#261);
#213=AXIS2_PLACEMENT_3D('',#316,#262,#263);
#214=AXIS2_PLACEMENT_3D('',#319,#264,#265);
#215=AXIS2_PLACEMENT_3D('',#320,#266,#267);
#216=AXIS2_PLACEMENT_3D('',#321,#268,#269);
#217=AXIS2_PLACEMENT_3D('',#324,#270,#271);
#218=AXIS2_PLACEMENT_3D('',#325,#272,#273);
#219=AXIS2_PLACEMENT_3D('',#327,#275,#276);
#220=AXIS2_PLACEMENT_3D('',#330,#277,#278);
#221=AXIS2_PLACEMENT_3D('',#331,#279,#280);
#222=AXIS2_PLACEMENT_3D('',#333,#282,#283);
#223=DIRECTION('axis',(0.,0.,1.));
#224=DIRECTION('refdir',(1.,0.,0.));
#225=DIRECTION('center_axis',(0.,-1.,2.22044604925031E-16));
#226=DIRECTION('ref_axis',(1.,0.,0.));
#227=DIRECTION('center_axis',(0.,-1.,0.));
#228=DIRECTION('ref_axis',(1.,0.,0.));
#229=DIRECTION('center_axis',(0.,-1.,0.));
#230=DIRECTION('ref_axis',(1.,0.,0.));
#231=DIRECTION('',(0.,-1.,2.22044604925031E-16));
#232=DIRECTION('center_axis',(0.,1.,-2.22044604925031E-16));
#233=DIRECTION('ref_axis',(1.,0.,0.));
#234=DIRECTION('center_axis',(0.,1.,-2.22044604925031E-16));
#235=DIRECTION('ref_axis',(1.,0.,0.));
#236=DIRECTION('center_axis',(0.,-1.,2.22044604925031E-16));
#237=DIRECTION('ref_axis',(0.,-2.22044604925031E-16,-1.));
#238=DIRECTION('center_axis',(0.,-1.,0.));
#239=DIRECTION('ref_axis',(0.,0.,-1.));
#240=DIRECTION('center_axis',(0.,-1.,0.));
#241=DIRECTION('ref_axis',(-1.,3.46944695195363E-18,0.));
#242=DIRECTION('center_axis',(0.,-1.,0.));
#243=DIRECTION('ref_axis',(-1.,3.46944695195363E-18,0.));
#244=DIRECTION('center_axis',(-1.,0.,-1.22464679914735E-16));
#245=DIRECTION('ref_axis',(-1.22464679914735E-16,0.,1.));
#246=DIRECTION('center_axis',(0.,-1.,0.));
#247=DIRECTION('ref_axis',(-1.,3.46944695195363E-18,0.));
#248=DIRECTION('center_axis',(0.,-1.,0.));
#249=DIRECTION('ref_axis',(-1.,3.46944695195363E-18,0.));
#250=DIRECTION('center_axis',(0.,-1.,0.));
#251=DIRECTION('ref_axis',(-1.,3.46944695195363E-18,0.));
#252=DIRECTION('center_axis',(0.,-1.,0.));
#253=DIRECTION('ref_axis',(0.,0.,-1.));
#254=DIRECTION('center_axis',(0.,-1.,0.));
#255=DIRECTION('ref_axis',(-1.,3.46944695195363E-18,0.));
#256=DIRECTION('center_axis',(0.,-1.,0.));
#257=DIRECTION('ref_axis',(-1.,3.46944695195363E-18,0.));
#258=DIRECTION('center_axis',(-1.,0.,-1.22464679914735E-16));
#259=DIRECTION('ref_axis',(-1.22464679914735E-16,0.,1.));
#260=DIRECTION('center_axis',(0.,-1.,0.));
#261=DIRECTION('ref_axis',(0.,0.,-1.));
#262=DIRECTION('center_axis',(0.,1.,0.));
#263=DIRECTION('ref_axis',(0.,0.,1.));
#264=DIRECTION('center_axis',(0.,-1.,0.));
#265=DIRECTION('ref_axis',(-1.,3.46944695195363E-18,0.));
#266=DIRECTION('center_axis',(0.,-1.,0.));
#267=DIRECTION('ref_axis',(-1.,3.46944695195363E-18,0.));
#268=DIRECTION('center_axis',(0.,-1.,0.));
#269=DIRECTION('ref_axis',(-1.,3.46944695195363E-18,0.));
#270=DIRECTION('center_axis',(0.,-1.,0.));
#271=DIRECTION('ref_axis',(-1.,3.46944695195363E-18,0.));
#272=DIRECTION('center_axis',(0.,-1.,0.));
#273=DIRECTION('ref_axis',(-1.,3.46944695195363E-18,0.));
#274=DIRECTION('',(0.,1.,0.));
#275=DIRECTION('center_axis',(0.,-1.,0.));
#276=DIRECTION('ref_axis',(-1.,3.46944695195363E-18,0.));
#277=DIRECTION('center_axis',(0.,-1.,0.));
#278=DIRECTION('ref_axis',(-1.,3.46944695195363E-18,0.));
#279=DIRECTION('center_axis',(0.,-1.,0.));
#280=DIRECTION('ref_axis',(-1.,3.46944695195363E-18,0.));
#281=DIRECTION('',(-0.64018439966448,0.768221279597376,-7.83999775913175E-17));
#282=DIRECTION('center_axis',(0.,-1.,0.));
#283=DIRECTION('ref_axis',(-1.,3.46944695195363E-18,0.));
#284=DIRECTION('',(0.,1.,0.));
#285=CARTESIAN_POINT('',(0.,0.,0.));
#286=CARTESIAN_POINT('Origin',(0.,24.,0.));
#287=CARTESIAN_POINT('',(3.9,24.,0.));
#288=CARTESIAN_POINT('',(-3.9,24.,-4.77612251667468E-16));
#289=CARTESIAN_POINT('Origin',(0.,24.,0.));
#290=CARTESIAN_POINT('Origin',(0.,24.,0.));
#291=CARTESIAN_POINT('',(-3.9,14.,1.74283379758285E-15));
#292=CARTESIAN_POINT('',(-3.9,24.,-4.77612251667468E-16));
#293=CARTESIAN_POINT('',(3.9,14.,2.22044604925031E-15));
#294=CARTESIAN_POINT('Origin',(0.,14.,2.22044604925031E-15));
#295=CARTESIAN_POINT('Origin',(0.,14.,2.22044604925031E-15));
#296=CARTESIAN_POINT('Origin',(0.,14.,2.22044604925031E-15));
#297=CARTESIAN_POINT('Origin',(0.,0.380931863890737,0.));
#298=CARTESIAN_POINT('',(-10.5000000000001,1.49999999999975,0.));
#299=CARTESIAN_POINT('',(-1.28587913910473E-15,1.49999999999975,10.5000000000001));
#300=CARTESIAN_POINT('Origin',(0.,1.49999999999975,0.));
#301=CARTESIAN_POINT('Origin',(0.,1.49999999999975,0.));
#302=CARTESIAN_POINT('',(-1.01033360929657E-15,3.5,8.25));
#303=CARTESIAN_POINT('Origin',(-9.17429928861864E-16,0.380931863890737,
7.49138387901405));
#304=CARTESIAN_POINT('',(-8.25,3.5,0.));
#305=CARTESIAN_POINT('Origin',(0.,3.5,0.));
#306=CARTESIAN_POINT('',(8.25,3.5,1.01033360929657E-15));
#307=CARTESIAN_POINT('Origin',(0.,3.5,0.));
#308=CARTESIAN_POINT('Origin',(0.,3.5,0.));
#309=CARTESIAN_POINT('Origin',(0.,-0.0152718925705813,0.));
#310=CARTESIAN_POINT('',(-11.5,-6.0356233899661E-14,0.));
#311=CARTESIAN_POINT('',(-1.40834381901945E-15,-6.03553665379231E-14,11.5));
#312=CARTESIAN_POINT('Origin',(0.,-6.0356233899661E-14,0.));
#313=CARTESIAN_POINT('Origin',(0.,-6.0356233899661E-14,0.));
#314=CARTESIAN_POINT('Origin',(-1.20653331300496E-15,-0.0152718925705813,
9.8520921611439));
#315=CARTESIAN_POINT('Origin',(-5.74999999999998,-3.01781169498305E-14,
0.));
#316=CARTESIAN_POINT('Origin',(-2.875,24.,0.));
#317=CARTESIAN_POINT('',(-5.75,24.,0.));
#318=CARTESIAN_POINT('',(5.75,24.,7.04171909509728E-16));
#319=CARTESIAN_POINT('Origin',(0.,24.,0.));
#320=CARTESIAN_POINT('Origin',(0.,24.,0.));
#321=CARTESIAN_POINT('Origin',(0.,19.,0.));
#322=CARTESIAN_POINT('',(-5.75,14.,0.));
#323=CARTESIAN_POINT('',(5.75,14.,7.04171909509728E-16));
#324=CARTESIAN_POINT('Origin',(0.,14.,0.));
#325=CARTESIAN_POINT('Origin',(0.,14.,0.));
#326=CARTESIAN_POINT('',(5.75,19.,7.04171909509728E-16));
#327=CARTESIAN_POINT('Origin',(0.,12.5,0.));
#328=CARTESIAN_POINT('',(-8.25,11.,0.));
#329=CARTESIAN_POINT('',(8.25,11.,1.01033360929657E-15));
#330=CARTESIAN_POINT('Origin',(0.,11.,0.));
#331=CARTESIAN_POINT('Origin',(0.,11.,0.));
#332=CARTESIAN_POINT('',(7.,12.5,8.57252759403147E-16));
#333=CARTESIAN_POINT('Origin',(0.,7.25,0.));
#334=CARTESIAN_POINT('',(8.25,7.25,1.01033360929657E-15));
#335=UNCERTAINTY_MEASURE_WITH_UNIT(LENGTH_MEASURE(0.01),#339,
'DISTANCE_ACCURACY_VALUE',
'Maximum model space distance between geometric entities at asserted c
onnectivities');
#336=UNCERTAINTY_MEASURE_WITH_UNIT(LENGTH_MEASURE(0.01),#339,
'DISTANCE_ACCURACY_VALUE',
'Maximum model space distance between geometric entities at asserted c
onnectivities');
#337=(
GEOMETRIC_REPRESENTATION_CONTEXT(3)
GLOBAL_UNCERTAINTY_ASSIGNED_CONTEXT((#335))
GLOBAL_UNIT_ASSIGNED_CONTEXT((#339,#342,#341))
REPRESENTATION_CONTEXT('','3D')
);
#338=(
GEOMETRIC_REPRESENTATION_CONTEXT(3)
GLOBAL_UNCERTAINTY_ASSIGNED_CONTEXT((#336))
GLOBAL_UNIT_ASSIGNED_CONTEXT((#339,#342,#341))
REPRESENTATION_CONTEXT('','3D')
);
#339=(
LENGTH_UNIT()
NAMED_UNIT(*)
SI_UNIT(.MILLI.,.METRE.)
);
#340=(
LENGTH_UNIT()
NAMED_UNIT(*)
SI_UNIT(.CENTI.,.METRE.)
);
#341=(
NAMED_UNIT(*)
SI_UNIT($,.STERADIAN.)
SOLID_ANGLE_UNIT()
);
#342=(
NAMED_UNIT(*)
PLANE_ANGLE_UNIT()
SI_UNIT($,.RADIAN.)
);
#343=SHAPE_DEFINITION_REPRESENTATION(#344,#345);
#344=PRODUCT_DEFINITION_SHAPE('',$,#347);
#345=SHAPE_REPRESENTATION('',(#194),#337);
#346=PRODUCT_DEFINITION_CONTEXT('part definition',#351,'design');
#347=PRODUCT_DEFINITION('59_3D_vs23','59_3D_vs23',#348,#346);
#348=PRODUCT_DEFINITION_FORMATION('',$,#353);
#349=PRODUCT_RELATED_PRODUCT_CATEGORY('59_3D_vs23','59_3D_vs23',(#353));
#350=APPLICATION_PROTOCOL_DEFINITION('international standard',
'automotive_design',2009,#351);
#351=APPLICATION_CONTEXT(
'Core Data for Automotive Mechanical Design Process');
#352=PRODUCT_CONTEXT('part definition',#351,'mechanical');
#353=PRODUCT('59_3D_vs23','59_3D_vs23',$,(#352));
#354=PRESENTATION_STYLE_ASSIGNMENT((#356));
#355=PRESENTATION_STYLE_ASSIGNMENT((#357));
#356=SURFACE_STYLE_USAGE(.BOTH.,#358);
#357=SURFACE_STYLE_USAGE(.BOTH.,#359);
#358=SURFACE_SIDE_STYLE('',(#360));
#359=SURFACE_SIDE_STYLE('',(#361));
#360=SURFACE_STYLE_FILL_AREA(#362);
#361=SURFACE_STYLE_FILL_AREA(#363);
#362=FILL_AREA_STYLE('',(#364));
#363=FILL_AREA_STYLE('',(#365));
#364=FILL_AREA_STYLE_COLOUR('',#366);
#365=FILL_AREA_STYLE_COLOUR('',#367);
#366=COLOUR_RGB('',0.749019607843137,0.749019607843137,0.749019607843137);
#367=COLOUR_RGB('',0.313725490196078,0.313725490196078,0.313725490196078);
ENDSEC;
END-ISO-10303-21;
