ISO-10303-21;
HEADER;
/* Generated by software containing ST-Developer
 * from STEP Tools, Inc. (www.steptools.com) 
 */

FILE_DESCRIPTION(
/* description */ (''),
/* implementation_level */ '2;1');

FILE_NAME(
/* name */ 
'C:\\Users\\enginyeria\\Desktop\\stp ventosas\\vs24-5nit_rac90r1-8m.st
p',
/* time_stamp */ '2020-07-03T08:23:00+02:00',
/* author */ ('enginyeria'),
/* organization */ (''),
/* preprocessor_version */ 'ST-DEVELOPER v17',
/* originating_system */ 'Autodesk Inventor 2019',
/* authorisation */ '');

FILE_SCHEMA (('CONFIG_CONTROL_DESIGN'));
ENDSEC;

DATA;
#10=MECHANICAL_DESIGN_GEOMETRIC_PRESENTATION_REPRESENTATION('',(#235,#236,
#237,#238,#239,#240,#241,#242,#243,#244,#245,#246,#247,#248,#249),#521);
#11=SHAPE_REPRESENTATION_RELATIONSHIP('SRR','None',#528,#12);
#12=ADVANCED_BREP_SHAPE_REPRESENTATION('',(#13),#520);
#13=MANIFOLD_SOLID_BREP('S\X\F3lido1',#264);
#14=TOROIDAL_SURFACE('',#323,11.5,0.75);
#15=(
BOUNDED_SURFACE()
B_SPLINE_SURFACE(2,2,((#482,#483,#484,#485,#486,#487,#488,#489,#490),(#491,
#492,#493,#494,#495,#496,#497,#498,#499),(#500,#501,#502,#503,#504,#505,
#506,#507,#508)),.UNSPECIFIED.,.F.,.T.,.F.)
B_SPLINE_SURFACE_WITH_KNOTS((3,3),(3,2,2,2,3),(0.711082140108096,1.29705207843467),
(-3.14159265358979,-1.5707963267949,0.,1.5707963267949,3.14159265358979),
 .UNSPECIFIED.)
GEOMETRIC_REPRESENTATION_ITEM()
RATIONAL_B_SPLINE_SURFACE(((1.,0.707106781186548,1.,0.707106781186548,1.,
0.707106781186548,1.,0.707106781186548,1.),(0.957386049213233,0.676974167612075,
0.957386049213233,0.676974167612075,0.957386049213233,0.676974167612075,
0.957386049213233,0.676974167612075,0.957386049213233),(1.,0.707106781186548,
1.,0.707106781186548,1.,0.707106781186548,1.,0.707106781186548,1.)))
REPRESENTATION_ITEM('')
SURFACE()
);
#16=FACE_BOUND('',#46,.T.);
#17=FACE_BOUND('',#53,.T.);
#18=FACE_BOUND('',#56,.T.);
#19=PLANE('',#289);
#20=PLANE('',#292);
#21=PLANE('',#299);
#22=PLANE('',#306);
#23=PLANE('',#312);
#24=CYLINDRICAL_SURFACE('',#287,2.);
#25=CYLINDRICAL_SURFACE('',#293,12.25);
#26=CYLINDRICAL_SURFACE('',#303,4.86400000000001);
#27=CYLINDRICAL_SURFACE('',#309,4.28300000000004);
#28=CYLINDRICAL_SURFACE('',#315,5.99999999999998);
#29=FACE_OUTER_BOUND('',#43,.T.);
#30=FACE_OUTER_BOUND('',#44,.T.);
#31=FACE_OUTER_BOUND('',#45,.T.);
#32=FACE_OUTER_BOUND('',#47,.T.);
#33=FACE_OUTER_BOUND('',#48,.T.);
#34=FACE_OUTER_BOUND('',#49,.T.);
#35=FACE_OUTER_BOUND('',#50,.T.);
#36=FACE_OUTER_BOUND('',#51,.T.);
#37=FACE_OUTER_BOUND('',#52,.T.);
#38=FACE_OUTER_BOUND('',#54,.T.);
#39=FACE_OUTER_BOUND('',#55,.T.);
#40=FACE_OUTER_BOUND('',#57,.T.);
#41=FACE_OUTER_BOUND('',#58,.T.);
#42=FACE_OUTER_BOUND('',#59,.T.);
#43=EDGE_LOOP('',(#163,#164,#165,#166));
#44=EDGE_LOOP('',(#167,#168,#169,#170));
#45=EDGE_LOOP('',(#171,#172));
#46=EDGE_LOOP('',(#173));
#47=EDGE_LOOP('',(#174));
#48=EDGE_LOOP('',(#175,#176,#177,#178,#179,#180,#181));
#49=EDGE_LOOP('',(#182,#183));
#50=EDGE_LOOP('',(#184,#185,#186,#187,#188,#189));
#51=EDGE_LOOP('',(#190,#191,#192,#193,#194,#195));
#52=EDGE_LOOP('',(#196,#197));
#53=EDGE_LOOP('',(#198,#199));
#54=EDGE_LOOP('',(#200,#201,#202,#203,#204,#205));
#55=EDGE_LOOP('',(#206,#207));
#56=EDGE_LOOP('',(#208,#209));
#57=EDGE_LOOP('',(#210,#211,#212,#213,#214,#215,#216));
#58=EDGE_LOOP('',(#217,#218,#219,#220,#221,#222,#223,#224));
#59=EDGE_LOOP('',(#225,#226,#227,#228,#229,#230,#231,#232));
#60=LINE('',#421,#67);
#61=LINE('',#426,#68);
#62=LINE('',#439,#69);
#63=LINE('',#451,#70);
#64=LINE('',#457,#71);
#65=LINE('',#468,#72);
#66=LINE('',#481,#73);
#67=VECTOR('',#331,2.15);
#68=VECTOR('',#338,2.);
#69=VECTOR('',#353,12.25);
#70=VECTOR('',#368,4.57350000000001);
#71=VECTOR('',#375,4.86400000000001);
#72=VECTOR('',#388,4.28300000000004);
#73=VECTOR('',#403,5.99999999999998);
#74=CIRCLE('',#285,2.);
#75=CIRCLE('',#286,2.3);
#76=CIRCLE('',#288,2.);
#77=CIRCLE('',#290,4.283);
#78=CIRCLE('',#291,4.283);
#79=CIRCLE('',#294,12.25);
#80=CIRCLE('',#295,12.25);
#81=CIRCLE('',#296,12.25);
#82=CIRCLE('',#297,12.25);
#83=CIRCLE('',#298,12.25);
#84=CIRCLE('',#301,4.86400000000002);
#85=CIRCLE('',#302,4.86400000000002);
#86=CIRCLE('',#304,4.864);
#87=CIRCLE('',#305,4.864);
#88=CIRCLE('',#307,4.28300000000004);
#89=CIRCLE('',#308,4.28300000000004);
#90=CIRCLE('',#310,4.28300000000004);
#91=CIRCLE('',#311,4.28300000000004);
#92=CIRCLE('',#313,6.);
#93=CIRCLE('',#314,6.);
#94=CIRCLE('',#316,5.99999999999995);
#95=CIRCLE('',#317,5.99999999999995);
#96=CIRCLE('',#318,5.99999999999995);
#97=CIRCLE('',#319,11.5);
#98=CIRCLE('',#320,11.5);
#99=CIRCLE('',#321,11.2862671258274);
#100=CIRCLE('',#322,11.5);
#101=CIRCLE('',#324,0.75);
#102=VERTEX_POINT('',#418);
#103=VERTEX_POINT('',#420);
#104=VERTEX_POINT('',#424);
#105=VERTEX_POINT('',#428);
#106=VERTEX_POINT('',#429);
#107=VERTEX_POINT('',#434);
#108=VERTEX_POINT('',#435);
#109=VERTEX_POINT('',#438);
#110=VERTEX_POINT('',#440);
#111=VERTEX_POINT('',#442);
#112=VERTEX_POINT('',#447);
#113=VERTEX_POINT('',#448);
#114=VERTEX_POINT('',#453);
#115=VERTEX_POINT('',#454);
#116=VERTEX_POINT('',#459);
#117=VERTEX_POINT('',#460);
#118=VERTEX_POINT('',#464);
#119=VERTEX_POINT('',#465);
#120=VERTEX_POINT('',#470);
#121=VERTEX_POINT('',#471);
#122=VERTEX_POINT('',#475);
#123=VERTEX_POINT('',#476);
#124=VERTEX_POINT('',#478);
#125=VERTEX_POINT('',#509);
#126=VERTEX_POINT('',#510);
#127=VERTEX_POINT('',#512);
#128=EDGE_CURVE('',#102,#102,#74,.T.);
#129=EDGE_CURVE('',#102,#103,#60,.T.);
#130=EDGE_CURVE('',#103,#103,#75,.T.);
#131=EDGE_CURVE('',#104,#104,#76,.T.);
#132=EDGE_CURVE('',#104,#102,#61,.T.);
#133=EDGE_CURVE('',#105,#106,#77,.T.);
#134=EDGE_CURVE('',#106,#105,#78,.T.);
#135=EDGE_CURVE('',#107,#108,#79,.T.);
#136=EDGE_CURVE('',#108,#107,#80,.T.);
#137=EDGE_CURVE('',#108,#109,#62,.T.);
#138=EDGE_CURVE('',#109,#110,#81,.T.);
#139=EDGE_CURVE('',#110,#111,#82,.T.);
#140=EDGE_CURVE('',#111,#109,#83,.T.);
#141=EDGE_CURVE('',#112,#113,#84,.T.);
#142=EDGE_CURVE('',#113,#112,#85,.T.);
#143=EDGE_CURVE('',#113,#106,#63,.T.);
#144=EDGE_CURVE('',#114,#115,#86,.T.);
#145=EDGE_CURVE('',#115,#114,#87,.T.);
#146=EDGE_CURVE('',#115,#113,#64,.T.);
#147=EDGE_CURVE('',#116,#117,#88,.T.);
#148=EDGE_CURVE('',#117,#116,#89,.T.);
#149=EDGE_CURVE('',#118,#119,#90,.T.);
#150=EDGE_CURVE('',#119,#118,#91,.T.);
#151=EDGE_CURVE('',#119,#117,#65,.T.);
#152=EDGE_CURVE('',#120,#121,#92,.T.);
#153=EDGE_CURVE('',#121,#120,#93,.T.);
#154=EDGE_CURVE('',#122,#123,#94,.T.);
#155=EDGE_CURVE('',#124,#122,#95,.T.);
#156=EDGE_CURVE('',#123,#124,#96,.T.);
#157=EDGE_CURVE('',#123,#121,#66,.T.);
#158=EDGE_CURVE('',#125,#126,#97,.T.);
#159=EDGE_CURVE('',#127,#125,#98,.T.);
#160=EDGE_CURVE('',#127,#124,#99,.T.);
#161=EDGE_CURVE('',#126,#127,#100,.T.);
#162=EDGE_CURVE('',#111,#126,#101,.T.);
#163=ORIENTED_EDGE('',*,*,#128,.T.);
#164=ORIENTED_EDGE('',*,*,#129,.T.);
#165=ORIENTED_EDGE('',*,*,#130,.T.);
#166=ORIENTED_EDGE('',*,*,#129,.F.);
#167=ORIENTED_EDGE('',*,*,#131,.F.);
#168=ORIENTED_EDGE('',*,*,#132,.T.);
#169=ORIENTED_EDGE('',*,*,#128,.F.);
#170=ORIENTED_EDGE('',*,*,#132,.F.);
#171=ORIENTED_EDGE('',*,*,#133,.F.);
#172=ORIENTED_EDGE('',*,*,#134,.F.);
#173=ORIENTED_EDGE('',*,*,#130,.F.);
#174=ORIENTED_EDGE('',*,*,#131,.T.);
#175=ORIENTED_EDGE('',*,*,#135,.F.);
#176=ORIENTED_EDGE('',*,*,#136,.F.);
#177=ORIENTED_EDGE('',*,*,#137,.T.);
#178=ORIENTED_EDGE('',*,*,#138,.T.);
#179=ORIENTED_EDGE('',*,*,#139,.T.);
#180=ORIENTED_EDGE('',*,*,#140,.T.);
#181=ORIENTED_EDGE('',*,*,#137,.F.);
#182=ORIENTED_EDGE('',*,*,#135,.T.);
#183=ORIENTED_EDGE('',*,*,#136,.T.);
#184=ORIENTED_EDGE('',*,*,#141,.F.);
#185=ORIENTED_EDGE('',*,*,#142,.F.);
#186=ORIENTED_EDGE('',*,*,#143,.T.);
#187=ORIENTED_EDGE('',*,*,#134,.T.);
#188=ORIENTED_EDGE('',*,*,#133,.T.);
#189=ORIENTED_EDGE('',*,*,#143,.F.);
#190=ORIENTED_EDGE('',*,*,#144,.F.);
#191=ORIENTED_EDGE('',*,*,#145,.F.);
#192=ORIENTED_EDGE('',*,*,#146,.T.);
#193=ORIENTED_EDGE('',*,*,#142,.T.);
#194=ORIENTED_EDGE('',*,*,#141,.T.);
#195=ORIENTED_EDGE('',*,*,#146,.F.);
#196=ORIENTED_EDGE('',*,*,#144,.T.);
#197=ORIENTED_EDGE('',*,*,#145,.T.);
#198=ORIENTED_EDGE('',*,*,#147,.F.);
#199=ORIENTED_EDGE('',*,*,#148,.F.);
#200=ORIENTED_EDGE('',*,*,#149,.F.);
#201=ORIENTED_EDGE('',*,*,#150,.F.);
#202=ORIENTED_EDGE('',*,*,#151,.T.);
#203=ORIENTED_EDGE('',*,*,#148,.T.);
#204=ORIENTED_EDGE('',*,*,#147,.T.);
#205=ORIENTED_EDGE('',*,*,#151,.F.);
#206=ORIENTED_EDGE('',*,*,#152,.F.);
#207=ORIENTED_EDGE('',*,*,#153,.F.);
#208=ORIENTED_EDGE('',*,*,#149,.T.);
#209=ORIENTED_EDGE('',*,*,#150,.T.);
#210=ORIENTED_EDGE('',*,*,#154,.F.);
#211=ORIENTED_EDGE('',*,*,#155,.F.);
#212=ORIENTED_EDGE('',*,*,#156,.F.);
#213=ORIENTED_EDGE('',*,*,#157,.T.);
#214=ORIENTED_EDGE('',*,*,#153,.T.);
#215=ORIENTED_EDGE('',*,*,#152,.T.);
#216=ORIENTED_EDGE('',*,*,#157,.F.);
#217=ORIENTED_EDGE('',*,*,#158,.F.);
#218=ORIENTED_EDGE('',*,*,#159,.F.);
#219=ORIENTED_EDGE('',*,*,#160,.T.);
#220=ORIENTED_EDGE('',*,*,#155,.T.);
#221=ORIENTED_EDGE('',*,*,#154,.T.);
#222=ORIENTED_EDGE('',*,*,#156,.T.);
#223=ORIENTED_EDGE('',*,*,#160,.F.);
#224=ORIENTED_EDGE('',*,*,#161,.F.);
#225=ORIENTED_EDGE('',*,*,#139,.F.);
#226=ORIENTED_EDGE('',*,*,#138,.F.);
#227=ORIENTED_EDGE('',*,*,#140,.F.);
#228=ORIENTED_EDGE('',*,*,#162,.T.);
#229=ORIENTED_EDGE('',*,*,#161,.T.);
#230=ORIENTED_EDGE('',*,*,#159,.T.);
#231=ORIENTED_EDGE('',*,*,#158,.T.);
#232=ORIENTED_EDGE('',*,*,#162,.F.);
#233=CONICAL_SURFACE('',#284,2.15,0.785398163397448);
#234=CONICAL_SURFACE('',#300,4.57350000000001,0.785398163397448);
#235=STYLED_ITEM('',(#538),#250);
#236=STYLED_ITEM('',(#538),#251);
#237=STYLED_ITEM('',(#538),#252);
#238=STYLED_ITEM('',(#538),#253);
#239=STYLED_ITEM('',(#539),#254);
#240=STYLED_ITEM('',(#539),#255);
#241=STYLED_ITEM('',(#538),#256);
#242=STYLED_ITEM('',(#538),#257);
#243=STYLED_ITEM('',(#538),#258);
#244=STYLED_ITEM('',(#538),#259);
#245=STYLED_ITEM('',(#539),#260);
#246=STYLED_ITEM('',(#539),#261);
#247=STYLED_ITEM('',(#539),#262);
#248=STYLED_ITEM('',(#539),#263);
#249=STYLED_ITEM('',(#537),#13);
#250=ADVANCED_FACE('',(#29),#233,.F.);
#251=ADVANCED_FACE('',(#30),#24,.F.);
#252=ADVANCED_FACE('',(#31,#16),#19,.T.);
#253=ADVANCED_FACE('',(#32),#20,.F.);
#254=ADVANCED_FACE('',(#33),#25,.T.);
#255=ADVANCED_FACE('',(#34),#21,.T.);
#256=ADVANCED_FACE('',(#35),#234,.T.);
#257=ADVANCED_FACE('',(#36),#26,.T.);
#258=ADVANCED_FACE('',(#37,#17),#22,.T.);
#259=ADVANCED_FACE('',(#38),#27,.T.);
#260=ADVANCED_FACE('',(#39,#18),#23,.T.);
#261=ADVANCED_FACE('',(#40),#28,.T.);
#262=ADVANCED_FACE('',(#41),#15,.F.);
#263=ADVANCED_FACE('',(#42),#14,.T.);
#264=CLOSED_SHELL('',(#250,#251,#252,#253,#254,#255,#256,#257,#258,#259,
#260,#261,#262,#263));
#265=DERIVED_UNIT_ELEMENT(#267,1.);
#266=DERIVED_UNIT_ELEMENT(#523,3.);
#267=(
MASS_UNIT()
NAMED_UNIT(*)
SI_UNIT($,.GRAM.)
);
#268=DERIVED_UNIT((#265,#266));
#269=MEASURE_REPRESENTATION_ITEM('density measure',
POSITIVE_RATIO_MEASURE(1.),#268);
#270=PROPERTY_DEFINITION_REPRESENTATION(#275,#272);
#271=PROPERTY_DEFINITION_REPRESENTATION(#276,#273);
#272=REPRESENTATION('material name',(#274),#520);
#273=REPRESENTATION('density',(#269),#520);
#274=DESCRIPTIVE_REPRESENTATION_ITEM('Generic','Generic');
#275=PROPERTY_DEFINITION('material property','material name',#530);
#276=PROPERTY_DEFINITION('material property','density of part',#530);
#277=DATE_TIME_ROLE('creation_date');
#278=CC_DESIGN_DATE_AND_TIME_ASSIGNMENT(#279,#277,(#530));
#279=DATE_AND_TIME(#280,#281);
#280=CALENDAR_DATE(2020,31,3);
#281=LOCAL_TIME(9,10,25.,#282);
#282=COORDINATED_UNIVERSAL_TIME_OFFSET(0,0,.BEHIND.);
#283=AXIS2_PLACEMENT_3D('placement',#416,#325,#326);
#284=AXIS2_PLACEMENT_3D('',#417,#327,#328);
#285=AXIS2_PLACEMENT_3D('',#419,#329,#330);
#286=AXIS2_PLACEMENT_3D('',#422,#332,#333);
#287=AXIS2_PLACEMENT_3D('',#423,#334,#335);
#288=AXIS2_PLACEMENT_3D('',#425,#336,#337);
#289=AXIS2_PLACEMENT_3D('',#427,#339,#340);
#290=AXIS2_PLACEMENT_3D('',#430,#341,#342);
#291=AXIS2_PLACEMENT_3D('',#431,#343,#344);
#292=AXIS2_PLACEMENT_3D('',#432,#345,#346);
#293=AXIS2_PLACEMENT_3D('',#433,#347,#348);
#294=AXIS2_PLACEMENT_3D('',#436,#349,#350);
#295=AXIS2_PLACEMENT_3D('',#437,#351,#352);
#296=AXIS2_PLACEMENT_3D('',#441,#354,#355);
#297=AXIS2_PLACEMENT_3D('',#443,#356,#357);
#298=AXIS2_PLACEMENT_3D('',#444,#358,#359);
#299=AXIS2_PLACEMENT_3D('',#445,#360,#361);
#300=AXIS2_PLACEMENT_3D('',#446,#362,#363);
#301=AXIS2_PLACEMENT_3D('',#449,#364,#365);
#302=AXIS2_PLACEMENT_3D('',#450,#366,#367);
#303=AXIS2_PLACEMENT_3D('',#452,#369,#370);
#304=AXIS2_PLACEMENT_3D('',#455,#371,#372);
#305=AXIS2_PLACEMENT_3D('',#456,#373,#374);
#306=AXIS2_PLACEMENT_3D('',#458,#376,#377);
#307=AXIS2_PLACEMENT_3D('',#461,#378,#379);
#308=AXIS2_PLACEMENT_3D('',#462,#380,#381);
#309=AXIS2_PLACEMENT_3D('',#463,#382,#383);
#310=AXIS2_PLACEMENT_3D('',#466,#384,#385);
#311=AXIS2_PLACEMENT_3D('',#467,#386,#387);
#312=AXIS2_PLACEMENT_3D('',#469,#389,#390);
#313=AXIS2_PLACEMENT_3D('',#472,#391,#392);
#314=AXIS2_PLACEMENT_3D('',#473,#393,#394);
#315=AXIS2_PLACEMENT_3D('',#474,#395,#396);
#316=AXIS2_PLACEMENT_3D('',#477,#397,#398);
#317=AXIS2_PLACEMENT_3D('',#479,#399,#400);
#318=AXIS2_PLACEMENT_3D('',#480,#401,#402);
#319=AXIS2_PLACEMENT_3D('',#511,#404,#405);
#320=AXIS2_PLACEMENT_3D('',#513,#406,#407);
#321=AXIS2_PLACEMENT_3D('',#514,#408,#409);
#322=AXIS2_PLACEMENT_3D('',#515,#410,#411);
#323=AXIS2_PLACEMENT_3D('',#516,#412,#413);
#324=AXIS2_PLACEMENT_3D('',#517,#414,#415);
#325=DIRECTION('axis',(0.,0.,1.));
#326=DIRECTION('refdir',(1.,0.,0.));
#327=DIRECTION('center_axis',(0.,1.,0.));
#328=DIRECTION('ref_axis',(-1.,0.,0.));
#329=DIRECTION('center_axis',(0.,-1.,0.));
#330=DIRECTION('ref_axis',(-1.,0.,0.));
#331=DIRECTION('',(0.707106781186547,0.707106781186548,-8.65956056235493E-17));
#332=DIRECTION('center_axis',(0.,1.,0.));
#333=DIRECTION('ref_axis',(-1.,0.,0.));
#334=DIRECTION('center_axis',(0.,1.,0.));
#335=DIRECTION('ref_axis',(-1.,0.,3.92523114670944E-16));
#336=DIRECTION('center_axis',(0.,1.,0.));
#337=DIRECTION('ref_axis',(1.,0.,0.));
#338=DIRECTION('',(0.,1.,0.));
#339=DIRECTION('center_axis',(0.,1.,0.));
#340=DIRECTION('ref_axis',(0.,0.,1.));
#341=DIRECTION('center_axis',(0.,-1.,0.));
#342=DIRECTION('ref_axis',(1.,0.,0.));
#343=DIRECTION('center_axis',(0.,-1.,0.));
#344=DIRECTION('ref_axis',(1.,0.,0.));
#345=DIRECTION('center_axis',(0.,-1.,0.));
#346=DIRECTION('ref_axis',(0.,0.,-1.));
#347=DIRECTION('center_axis',(0.,-1.,0.));
#348=DIRECTION('ref_axis',(1.,0.,0.));
#349=DIRECTION('center_axis',(0.,-1.,0.));
#350=DIRECTION('ref_axis',(1.,0.,0.));
#351=DIRECTION('center_axis',(0.,-1.,0.));
#352=DIRECTION('ref_axis',(1.,0.,0.));
#353=DIRECTION('',(0.,1.,0.));
#354=DIRECTION('center_axis',(0.,-1.,0.));
#355=DIRECTION('ref_axis',(1.,0.,0.));
#356=DIRECTION('center_axis',(0.,-1.,0.));
#357=DIRECTION('ref_axis',(1.,0.,0.));
#358=DIRECTION('center_axis',(0.,-1.,0.));
#359=DIRECTION('ref_axis',(1.,0.,0.));
#360=DIRECTION('center_axis',(0.,-1.,0.));
#361=DIRECTION('ref_axis',(0.,0.,-1.));
#362=DIRECTION('center_axis',(0.,-1.,0.));
#363=DIRECTION('ref_axis',(1.,0.,0.));
#364=DIRECTION('center_axis',(0.,-1.,0.));
#365=DIRECTION('ref_axis',(1.,0.,0.));
#366=DIRECTION('center_axis',(0.,-1.,0.));
#367=DIRECTION('ref_axis',(1.,0.,0.));
#368=DIRECTION('',(0.707106781186547,0.707106781186548,8.65956056235493E-17));
#369=DIRECTION('center_axis',(0.,-1.,0.));
#370=DIRECTION('ref_axis',(1.,0.,0.));
#371=DIRECTION('center_axis',(0.,-1.,0.));
#372=DIRECTION('ref_axis',(1.,0.,0.));
#373=DIRECTION('center_axis',(0.,-1.,0.));
#374=DIRECTION('ref_axis',(1.,0.,0.));
#375=DIRECTION('',(0.,1.,0.));
#376=DIRECTION('center_axis',(0.,-1.,0.));
#377=DIRECTION('ref_axis',(0.,0.,-1.));
#378=DIRECTION('center_axis',(0.,-1.,0.));
#379=DIRECTION('ref_axis',(1.,0.,0.));
#380=DIRECTION('center_axis',(0.,-1.,0.));
#381=DIRECTION('ref_axis',(1.,0.,0.));
#382=DIRECTION('center_axis',(0.,-1.,0.));
#383=DIRECTION('ref_axis',(1.,0.,0.));
#384=DIRECTION('center_axis',(0.,-1.,0.));
#385=DIRECTION('ref_axis',(1.,0.,0.));
#386=DIRECTION('center_axis',(0.,-1.,0.));
#387=DIRECTION('ref_axis',(1.,0.,0.));
#388=DIRECTION('',(0.,1.,0.));
#389=DIRECTION('center_axis',(0.,1.,0.));
#390=DIRECTION('ref_axis',(0.,0.,1.));
#391=DIRECTION('center_axis',(0.,-1.,0.));
#392=DIRECTION('ref_axis',(1.,0.,0.));
#393=DIRECTION('center_axis',(0.,-1.,0.));
#394=DIRECTION('ref_axis',(1.,0.,0.));
#395=DIRECTION('center_axis',(0.,-1.,0.));
#396=DIRECTION('ref_axis',(1.,0.,0.));
#397=DIRECTION('center_axis',(0.,-1.,0.));
#398=DIRECTION('ref_axis',(1.,0.,0.));
#399=DIRECTION('center_axis',(0.,-1.,0.));
#400=DIRECTION('ref_axis',(1.,0.,0.));
#401=DIRECTION('center_axis',(0.,-1.,0.));
#402=DIRECTION('ref_axis',(1.,0.,0.));
#403=DIRECTION('',(0.,1.,0.));
#404=DIRECTION('center_axis',(0.,-1.,0.));
#405=DIRECTION('ref_axis',(1.,0.,0.));
#406=DIRECTION('center_axis',(0.,-1.,0.));
#407=DIRECTION('ref_axis',(1.,0.,0.));
#408=DIRECTION('center_axis',(1.,3.91781501337601E-15,-1.22464679914783E-16));
#409=DIRECTION('ref_axis',(-1.22464679914735E-16,-1.22446838295681E-14,
-1.));
#410=DIRECTION('center_axis',(0.,-1.,0.));
#411=DIRECTION('ref_axis',(1.,0.,0.));
#412=DIRECTION('center_axis',(0.,-1.,0.));
#413=DIRECTION('ref_axis',(0.,0.,-1.));
#414=DIRECTION('center_axis',(-1.,0.,-1.22464679914735E-16));
#415=DIRECTION('ref_axis',(-1.22464679914735E-16,0.,1.));
#416=CARTESIAN_POINT('',(0.,0.,0.));
#417=CARTESIAN_POINT('Origin',(0.,17.65,0.));
#418=CARTESIAN_POINT('',(2.,17.5,2.449294E-16));
#419=CARTESIAN_POINT('Origin',(0.,17.5,0.));
#420=CARTESIAN_POINT('',(2.3,17.8,-2.816688E-16));
#421=CARTESIAN_POINT('',(2.15,17.65,-2.63299061816681E-16));
#422=CARTESIAN_POINT('Origin',(0.,17.8,0.));
#423=CARTESIAN_POINT('Origin',(-5.55111512312578E-16,15.15,-5.40116829341887E-16));
#424=CARTESIAN_POINT('',(2.,12.8,0.));
#425=CARTESIAN_POINT('Origin',(0.,12.8,0.));
#426=CARTESIAN_POINT('',(2.,15.15,-1.57009241851325E-15));
#427=CARTESIAN_POINT('Origin',(2.1415,17.8,0.));
#428=CARTESIAN_POINT('',(4.283,17.8,0.));
#429=CARTESIAN_POINT('',(-4.283,17.8,-5.24516224074812E-16));
#430=CARTESIAN_POINT('Origin',(0.,17.8,0.));
#431=CARTESIAN_POINT('Origin',(0.,17.8,0.));
#432=CARTESIAN_POINT('Origin',(0.,12.8,-2.));
#433=CARTESIAN_POINT('Origin',(0.,0.274999999999942,0.));
#434=CARTESIAN_POINT('',(12.25,-7.105427E-15,0.));
#435=CARTESIAN_POINT('',(-12.25,-7.04297731246584E-15,-1.50019232895551E-15));
#436=CARTESIAN_POINT('Origin',(0.,-7.077672E-15,0.));
#437=CARTESIAN_POINT('Origin',(0.,-7.077672E-15,0.));
#438=CARTESIAN_POINT('',(-12.25,0.549999999999891,-1.50019232895551E-15));
#439=CARTESIAN_POINT('',(-12.25,0.274999999999942,-1.50019232895551E-15));
#440=CARTESIAN_POINT('',(12.25,0.549999999999891,0.));
#441=CARTESIAN_POINT('Origin',(0.,0.549999999999891,0.));
#442=CARTESIAN_POINT('',(-1.50019232895551E-15,0.549999999999891,12.25));
#443=CARTESIAN_POINT('Origin',(0.,0.549999999999891,0.));
#444=CARTESIAN_POINT('Origin',(0.,0.549999999999891,0.));
#445=CARTESIAN_POINT('Origin',(6.125,-3.552714E-15,0.));
#446=CARTESIAN_POINT('Origin',(0.,17.5095,0.));
#447=CARTESIAN_POINT('',(4.86400000000002,17.2189999999999,0.));
#448=CARTESIAN_POINT('',(-4.86400000000006,17.2189999999999,-5.9566820310528E-16));
#449=CARTESIAN_POINT('Origin',(0.,17.2189999999999,0.));
#450=CARTESIAN_POINT('Origin',(0.,17.2189999999999,0.));
#451=CARTESIAN_POINT('',(-4.57350000000001,17.5095,-5.60092213590043E-16));
#452=CARTESIAN_POINT('Origin',(0.,14.0094999999999,0.));
#453=CARTESIAN_POINT('',(4.864,10.7999999999999,0.));
#454=CARTESIAN_POINT('',(-4.86400000000001,10.7999999999999,-5.95668203105274E-16));
#455=CARTESIAN_POINT('Origin',(0.,10.7999999999999,0.));
#456=CARTESIAN_POINT('Origin',(0.,10.7999999999999,0.));
#457=CARTESIAN_POINT('',(-4.86400000000001,14.0094999999999,-5.95668203105274E-16));
#458=CARTESIAN_POINT('Origin',(4.57350000000002,10.7999999999999,0.));
#459=CARTESIAN_POINT('',(4.28300000000004,10.7999999999999,0.));
#460=CARTESIAN_POINT('',(-4.28300000000004,10.7999999999999,-5.24516224074816E-16));
#461=CARTESIAN_POINT('Origin',(0.,10.7999999999999,0.));
#462=CARTESIAN_POINT('Origin',(0.,10.7999999999999,0.));
#463=CARTESIAN_POINT('Origin',(0.,9.79999999999995,0.));
#464=CARTESIAN_POINT('',(4.28300000000004,8.79999999999996,0.));
#465=CARTESIAN_POINT('',(-4.28300000000004,8.79999999999996,-5.24516224074816E-16));
#466=CARTESIAN_POINT('Origin',(0.,8.79999999999996,0.));
#467=CARTESIAN_POINT('Origin',(0.,8.79999999999996,0.));
#468=CARTESIAN_POINT('',(-4.28300000000004,9.79999999999995,-5.24516224074816E-16));
#469=CARTESIAN_POINT('Origin',(5.14150000000002,8.79999999999996,0.));
#470=CARTESIAN_POINT('',(6.,8.79999999999996,0.));
#471=CARTESIAN_POINT('',(-5.99999999999998,8.79999999999996,-7.34788079488409E-16));
#472=CARTESIAN_POINT('Origin',(0.,8.79999999999996,0.));
#473=CARTESIAN_POINT('Origin',(0.,8.79999999999996,0.));
#474=CARTESIAN_POINT('Origin',(0.,6.79999999999993,0.));
#475=CARTESIAN_POINT('',(5.99999999999995,4.79999999999991,0.));
#476=CARTESIAN_POINT('',(-5.99999999999998,4.79999999999991,-7.34788079488409E-16));
#477=CARTESIAN_POINT('Origin',(0.,4.79999999999991,0.));
#478=CARTESIAN_POINT('',(-7.51120301368449E-14,4.79999999999991,-5.99999999999995));
#479=CARTESIAN_POINT('Origin',(0.,4.79999999999991,0.));
#480=CARTESIAN_POINT('Origin',(0.,4.79999999999991,0.));
#481=CARTESIAN_POINT('',(-5.99999999999998,6.79999999999993,-7.34788079488409E-16));
#482=CARTESIAN_POINT('Ctrl Pts',(-6.06648895105394E-14,1.29999999999956,
-11.5000000000003));
#483=CARTESIAN_POINT('Ctrl Pts',(-11.5000000000002,1.29999999999951,-11.5000000000002));
#484=CARTESIAN_POINT('Ctrl Pts',(-11.5000000000002,1.29999999999965,-1.42306589059248E-13));
#485=CARTESIAN_POINT('Ctrl Pts',(-11.5000000000002,1.29999999999979,11.5));
#486=CARTESIAN_POINT('Ctrl Pts',(-6.06648895105394E-14,1.29999999999984,
11.5));
#487=CARTESIAN_POINT('Ctrl Pts',(11.5,1.29999999999988,11.5));
#488=CARTESIAN_POINT('Ctrl Pts',(11.5,1.29999999999974,-1.4230658905925E-13));
#489=CARTESIAN_POINT('Ctrl Pts',(11.5,1.2999999999996,-11.5000000000002));
#490=CARTESIAN_POINT('Ctrl Pts',(-6.06648895105394E-14,1.29999999999956,
-11.5000000000003));
#491=CARTESIAN_POINT('Ctrl Pts',(-7.07712177646996E-14,3.87958280818621,
-9.27791633248241));
#492=CARTESIAN_POINT('Ctrl Pts',(-9.27791633248231,3.87958280818617,-9.27791633248241));
#493=CARTESIAN_POINT('Ctrl Pts',(-9.27791633248231,3.87958280818629,-1.73868749837367E-13));
#494=CARTESIAN_POINT('Ctrl Pts',(-9.27791633248231,3.8795828081864,9.27791633248206));
#495=CARTESIAN_POINT('Ctrl Pts',(-7.07712177646996E-14,3.87958280818643,
9.27791633248206));
#496=CARTESIAN_POINT('Ctrl Pts',(9.27791633248216,3.87958280818647,9.27791633248206));
#497=CARTESIAN_POINT('Ctrl Pts',(9.27791633248217,3.87958280818636,-1.73868749837368E-13));
#498=CARTESIAN_POINT('Ctrl Pts',(9.27791633248216,3.87958280818625,-9.27791633248241));
#499=CARTESIAN_POINT('Ctrl Pts',(-7.07712177646996E-14,3.87958280818621,
-9.27791633248241));
#500=CARTESIAN_POINT('Ctrl Pts',(-7.43772420573565E-14,4.79999999999991,
-5.99999999999993));
#501=CARTESIAN_POINT('Ctrl Pts',(-5.99999999999982,4.79999999999988,-5.99999999999993));
#502=CARTESIAN_POINT('Ctrl Pts',(-5.99999999999982,4.79999999999995,-1.85130398542255E-13));
#503=CARTESIAN_POINT('Ctrl Pts',(-5.99999999999982,4.80000000000003,5.99999999999956));
#504=CARTESIAN_POINT('Ctrl Pts',(-7.43772420573565E-14,4.80000000000005,
5.99999999999956));
#505=CARTESIAN_POINT('Ctrl Pts',(5.99999999999967,4.80000000000007,5.99999999999956));
#506=CARTESIAN_POINT('Ctrl Pts',(5.99999999999967,4.8,-1.85130398542256E-13));
#507=CARTESIAN_POINT('Ctrl Pts',(5.99999999999967,4.79999999999993,-5.99999999999993));
#508=CARTESIAN_POINT('Ctrl Pts',(-7.43772420573565E-14,4.79999999999991,
-5.99999999999993));
#509=CARTESIAN_POINT('',(11.5,1.29999999999989,0.));
#510=CARTESIAN_POINT('',(-1.40834381901946E-15,1.29999999999989,11.5));
#511=CARTESIAN_POINT('Origin',(0.,1.29999999999989,0.));
#512=CARTESIAN_POINT('',(-6.20732333295601E-14,1.29999999999989,-11.5));
#513=CARTESIAN_POINT('Origin',(0.,1.29999999999989,0.));
#514=CARTESIAN_POINT('Origin',(-3.21672899679744E-14,-6.06602787012095,
-2.94889135537761));
#515=CARTESIAN_POINT('Origin',(0.,1.29999999999989,0.));
#516=CARTESIAN_POINT('Origin',(0.,0.549999999999891,0.));
#517=CARTESIAN_POINT('Origin',(-1.40834381901946E-15,0.549999999999891,
11.5));
#518=UNCERTAINTY_MEASURE_WITH_UNIT(LENGTH_MEASURE(0.01),#522,
'DISTANCE_ACCURACY_VALUE',
'Maximum model space distance between geometric entities at asserted c
onnectivities');
#519=UNCERTAINTY_MEASURE_WITH_UNIT(LENGTH_MEASURE(0.01),#522,
'DISTANCE_ACCURACY_VALUE',
'Maximum model space distance between geometric entities at asserted c
onnectivities');
#520=(
GEOMETRIC_REPRESENTATION_CONTEXT(3)
GLOBAL_UNCERTAINTY_ASSIGNED_CONTEXT((#518))
GLOBAL_UNIT_ASSIGNED_CONTEXT((#522,#525,#524))
REPRESENTATION_CONTEXT('','3D')
);
#521=(
GEOMETRIC_REPRESENTATION_CONTEXT(3)
GLOBAL_UNCERTAINTY_ASSIGNED_CONTEXT((#519))
GLOBAL_UNIT_ASSIGNED_CONTEXT((#522,#525,#524))
REPRESENTATION_CONTEXT('','3D')
);
#522=(
LENGTH_UNIT()
NAMED_UNIT(*)
SI_UNIT(.MILLI.,.METRE.)
);
#523=(
LENGTH_UNIT()
NAMED_UNIT(*)
SI_UNIT(.CENTI.,.METRE.)
);
#524=(
NAMED_UNIT(*)
SI_UNIT($,.STERADIAN.)
SOLID_ANGLE_UNIT()
);
#525=(
NAMED_UNIT(*)
PLANE_ANGLE_UNIT()
SI_UNIT($,.RADIAN.)
);
#526=SHAPE_DEFINITION_REPRESENTATION(#527,#528);
#527=PRODUCT_DEFINITION_SHAPE('',$,#530);
#528=SHAPE_REPRESENTATION('',(#283),#520);
#529=DESIGN_CONTEXT('part definition',#534,'design');
#530=PRODUCT_DEFINITION('vs24-5sb_rac90r1-8m','vs24-5sb_rac90r1-8m',#531,
#529);
#531=PRODUCT_DEFINITION_FORMATION('',$,#536);
#532=PRODUCT_RELATED_PRODUCT_CATEGORY('vs24-5sb_rac90r1-8m',
'vs24-5sb_rac90r1-8m',(#536));
#533=APPLICATION_PROTOCOL_DEFINITION('international standard',
'ap203_configuration_controlled_3d_design_of_mechanical_parts_and_asse
mblies_mim_lf',2004,#534);
#534=APPLICATION_CONTEXT(
'Configuration Controlled 3D Design of Mechanical Parts and Assemblies');
#535=MECHANICAL_CONTEXT('part definition',#534,'mechanical');
#536=PRODUCT('vs24-5sb_rac90r1-8m','vs24-5sb_rac90r1-8m',$,(#535));
#537=PRESENTATION_STYLE_ASSIGNMENT((#540));
#538=PRESENTATION_STYLE_ASSIGNMENT((#541));
#539=PRESENTATION_STYLE_ASSIGNMENT((#542));
#540=SURFACE_STYLE_USAGE(.BOTH.,#543);
#541=SURFACE_STYLE_USAGE(.BOTH.,#544);
#542=SURFACE_STYLE_USAGE(.BOTH.,#545);
#543=SURFACE_SIDE_STYLE('',(#546));
#544=SURFACE_SIDE_STYLE('',(#547));
#545=SURFACE_SIDE_STYLE('',(#548));
#546=SURFACE_STYLE_FILL_AREA(#549);
#547=SURFACE_STYLE_FILL_AREA(#550);
#548=SURFACE_STYLE_FILL_AREA(#551);
#549=FILL_AREA_STYLE('',(#552));
#550=FILL_AREA_STYLE('',(#553));
#551=FILL_AREA_STYLE('',(#554));
#552=FILL_AREA_STYLE_COLOUR('',#555);
#553=FILL_AREA_STYLE_COLOUR('',#556);
#554=FILL_AREA_STYLE_COLOUR('',#557);
#555=COLOUR_RGB('',0.749019607843137,0.749019607843137,0.749019607843137);
#556=COLOUR_RGB('',0.745098039215686,0.737254901960784,0.729411764705882);
#557=COLOUR_RGB('',0.32156862745098,0.32156862745098,0.32156862745098);
ENDSEC;
END-ISO-10303-21;
