ISO-10303-21;
HEADER;
/* Generated by software containing ST-Developer
 * from STEP Tools, Inc. (www.steptools.com) 
 */

FILE_DESCRIPTION(
/* description */ (''),
/* implementation_level */ '2;1');

FILE_NAME(
/* name */ 
'C:\\Users\\nebuc\\OneDrive\\Escritorio\\AR VC Cups\\VS NIT\\vs40nit.s
tp',
/* time_stamp */ '2020-03-26T12:12:16+01:00',
/* author */ ('nebuc'),
/* organization */ (''),
/* preprocessor_version */ 'ST-DEVELOPER v17',
/* originating_system */ 'Autodesk Inventor 2019',
/* authorisation */ '');

FILE_SCHEMA (('AUTOMOTIVE_DESIGN { 1 0 10303 214 3 1 1 }'));
ENDSEC;

DATA;
#10=MECHANICAL_DESIGN_GEOMETRIC_PRESENTATION_REPRESENTATION('',(#153,#154,
#155,#156,#157,#158,#159,#160,#161,#162),#356);
#11=SHAPE_REPRESENTATION_RELATIONSHIP('SRR','None',#363,#12);
#12=ADVANCED_BREP_SHAPE_REPRESENTATION('',(#13),#355);
#13=MANIFOLD_SOLID_BREP('Solid1',#172);
#14=(
BOUNDED_SURFACE()
B_SPLINE_SURFACE(2,2,((#319,#320,#321,#322,#323,#324,#325,#326,#327),(#328,
#329,#330,#331,#332,#333,#334,#335,#336),(#337,#338,#339,#340,#341,#342,
#343,#344,#345)),.UNSPECIFIED.,.F.,.T.,.F.)
B_SPLINE_SURFACE_WITH_KNOTS((3,3),(3,2,2,2,3),(-1.31773849688709,-0.535842447535511),
(-3.14159265358979,-1.5707963267949,0.,1.5707963267949,3.14159265358979),
 .UNSPECIFIED.)
GEOMETRIC_REPRESENTATION_ITEM()
RATIONAL_B_SPLINE_SURFACE(((1.,0.707106781186548,1.,0.707106781186548,1.,
0.707106781186548,1.,0.707106781186548,1.),(0.924548216280976,0.653754313266205,
0.924548216280976,0.653754313266205,0.924548216280976,0.653754313266205,
0.924548216280976,0.653754313266205,0.924548216280976),(1.,0.707106781186548,
1.,0.707106781186548,1.,0.707106781186548,1.,0.707106781186548,1.)))
REPRESENTATION_ITEM('')
SURFACE()
);
#15=TOROIDAL_SURFACE('',#210,8.5,1.);
#16=FACE_BOUND('',#35,.T.);
#17=FACE_BOUND('',#41,.T.);
#18=PLANE('',#197);
#19=PLANE('',#203);
#20=PLANE('',#217);
#21=PLANE('',#218);
#22=FACE_OUTER_BOUND('',#31,.T.);
#23=FACE_OUTER_BOUND('',#32,.T.);
#24=FACE_OUTER_BOUND('',#33,.T.);
#25=FACE_OUTER_BOUND('',#34,.T.);
#26=FACE_OUTER_BOUND('',#36,.T.);
#27=FACE_OUTER_BOUND('',#37,.T.);
#28=FACE_OUTER_BOUND('',#38,.T.);
#29=FACE_OUTER_BOUND('',#39,.T.);
#30=FACE_OUTER_BOUND('',#40,.T.);
#31=EDGE_LOOP('',(#106,#107,#108,#109,#110,#111));
#32=EDGE_LOOP('',(#112,#113));
#33=EDGE_LOOP('',(#114,#115,#116,#117,#118,#119));
#34=EDGE_LOOP('',(#120,#121));
#35=EDGE_LOOP('',(#122,#123));
#36=EDGE_LOOP('',(#124,#125,#126,#127,#128,#129,#130));
#37=EDGE_LOOP('',(#131,#132,#133,#134,#135,#136,#137));
#38=EDGE_LOOP('',(#138,#139,#140,#141,#142,#143));
#39=EDGE_LOOP('',(#144,#145));
#40=EDGE_LOOP('',(#146,#147));
#41=EDGE_LOOP('',(#148,#149));
#42=LINE('',#285,#45);
#43=LINE('',#296,#46);
#44=LINE('',#312,#47);
#45=VECTOR('',#227,3.5);
#46=VECTOR('',#240,9.50000000000005);
#47=VECTOR('',#259,7.50000000000003);
#48=CIRCLE('',#193,3.5);
#49=CIRCLE('',#194,3.5);
#50=CIRCLE('',#195,3.5);
#51=CIRCLE('',#196,3.5);
#52=CIRCLE('',#199,9.50000000000005);
#53=CIRCLE('',#200,9.50000000000005);
#54=CIRCLE('',#201,9.50000000000005);
#55=CIRCLE('',#202,9.50000000000005);
#56=CIRCLE('',#204,7.50000000000005);
#57=CIRCLE('',#205,7.50000000000005);
#58=CIRCLE('',#207,7.5);
#59=CIRCLE('',#208,7.5);
#60=CIRCLE('',#209,7.5);
#61=CIRCLE('',#211,1.);
#62=CIRCLE('',#212,8.24963443263411);
#63=CIRCLE('',#213,8.24963443263411);
#64=CIRCLE('',#214,19.9999999999999);
#65=CIRCLE('',#215,19.9999999999999);
#66=CIRCLE('',#216,19.2795429736903);
#67=VERTEX_POINT('',#280);
#68=VERTEX_POINT('',#281);
#69=VERTEX_POINT('',#284);
#70=VERTEX_POINT('',#286);
#71=VERTEX_POINT('',#291);
#72=VERTEX_POINT('',#292);
#73=VERTEX_POINT('',#295);
#74=VERTEX_POINT('',#297);
#75=VERTEX_POINT('',#301);
#76=VERTEX_POINT('',#302);
#77=VERTEX_POINT('',#306);
#78=VERTEX_POINT('',#307);
#79=VERTEX_POINT('',#309);
#80=VERTEX_POINT('',#314);
#81=VERTEX_POINT('',#316);
#82=VERTEX_POINT('',#346);
#83=VERTEX_POINT('',#347);
#84=EDGE_CURVE('',#67,#68,#48,.T.);
#85=EDGE_CURVE('',#68,#67,#49,.T.);
#86=EDGE_CURVE('',#68,#69,#42,.T.);
#87=EDGE_CURVE('',#70,#69,#50,.T.);
#88=EDGE_CURVE('',#69,#70,#51,.T.);
#89=EDGE_CURVE('',#71,#72,#52,.T.);
#90=EDGE_CURVE('',#72,#71,#53,.T.);
#91=EDGE_CURVE('',#72,#73,#43,.T.);
#92=EDGE_CURVE('',#73,#74,#54,.T.);
#93=EDGE_CURVE('',#74,#73,#55,.T.);
#94=EDGE_CURVE('',#75,#76,#56,.T.);
#95=EDGE_CURVE('',#76,#75,#57,.T.);
#96=EDGE_CURVE('',#77,#78,#58,.T.);
#97=EDGE_CURVE('',#79,#77,#59,.T.);
#98=EDGE_CURVE('',#78,#79,#60,.T.);
#99=EDGE_CURVE('',#78,#76,#44,.T.);
#100=EDGE_CURVE('',#79,#80,#61,.T.);
#101=EDGE_CURVE('',#81,#80,#62,.T.);
#102=EDGE_CURVE('',#80,#81,#63,.T.);
#103=EDGE_CURVE('',#82,#83,#64,.T.);
#104=EDGE_CURVE('',#83,#82,#65,.T.);
#105=EDGE_CURVE('',#83,#80,#66,.T.);
#106=ORIENTED_EDGE('',*,*,#84,.F.);
#107=ORIENTED_EDGE('',*,*,#85,.F.);
#108=ORIENTED_EDGE('',*,*,#86,.T.);
#109=ORIENTED_EDGE('',*,*,#87,.F.);
#110=ORIENTED_EDGE('',*,*,#88,.F.);
#111=ORIENTED_EDGE('',*,*,#86,.F.);
#112=ORIENTED_EDGE('',*,*,#87,.T.);
#113=ORIENTED_EDGE('',*,*,#88,.T.);
#114=ORIENTED_EDGE('',*,*,#89,.F.);
#115=ORIENTED_EDGE('',*,*,#90,.F.);
#116=ORIENTED_EDGE('',*,*,#91,.T.);
#117=ORIENTED_EDGE('',*,*,#92,.T.);
#118=ORIENTED_EDGE('',*,*,#93,.T.);
#119=ORIENTED_EDGE('',*,*,#91,.F.);
#120=ORIENTED_EDGE('',*,*,#89,.T.);
#121=ORIENTED_EDGE('',*,*,#90,.T.);
#122=ORIENTED_EDGE('',*,*,#94,.F.);
#123=ORIENTED_EDGE('',*,*,#95,.F.);
#124=ORIENTED_EDGE('',*,*,#96,.F.);
#125=ORIENTED_EDGE('',*,*,#97,.F.);
#126=ORIENTED_EDGE('',*,*,#98,.F.);
#127=ORIENTED_EDGE('',*,*,#99,.T.);
#128=ORIENTED_EDGE('',*,*,#95,.T.);
#129=ORIENTED_EDGE('',*,*,#94,.T.);
#130=ORIENTED_EDGE('',*,*,#99,.F.);
#131=ORIENTED_EDGE('',*,*,#96,.T.);
#132=ORIENTED_EDGE('',*,*,#98,.T.);
#133=ORIENTED_EDGE('',*,*,#100,.T.);
#134=ORIENTED_EDGE('',*,*,#101,.F.);
#135=ORIENTED_EDGE('',*,*,#102,.F.);
#136=ORIENTED_EDGE('',*,*,#100,.F.);
#137=ORIENTED_EDGE('',*,*,#97,.T.);
#138=ORIENTED_EDGE('',*,*,#103,.F.);
#139=ORIENTED_EDGE('',*,*,#104,.F.);
#140=ORIENTED_EDGE('',*,*,#105,.T.);
#141=ORIENTED_EDGE('',*,*,#102,.T.);
#142=ORIENTED_EDGE('',*,*,#101,.T.);
#143=ORIENTED_EDGE('',*,*,#105,.F.);
#144=ORIENTED_EDGE('',*,*,#103,.T.);
#145=ORIENTED_EDGE('',*,*,#104,.T.);
#146=ORIENTED_EDGE('',*,*,#93,.F.);
#147=ORIENTED_EDGE('',*,*,#92,.F.);
#148=ORIENTED_EDGE('',*,*,#84,.T.);
#149=ORIENTED_EDGE('',*,*,#85,.T.);
#150=CYLINDRICAL_SURFACE('',#192,3.5);
#151=CYLINDRICAL_SURFACE('',#198,9.50000000000005);
#152=CYLINDRICAL_SURFACE('',#206,7.50000000000003);
#153=STYLED_ITEM('',(#373),#163);
#154=STYLED_ITEM('',(#373),#164);
#155=STYLED_ITEM('',(#373),#165);
#156=STYLED_ITEM('',(#373),#166);
#157=STYLED_ITEM('',(#373),#167);
#158=STYLED_ITEM('',(#373),#168);
#159=STYLED_ITEM('',(#373),#169);
#160=STYLED_ITEM('',(#373),#170);
#161=STYLED_ITEM('',(#373),#171);
#162=STYLED_ITEM('',(#372),#13);
#163=ADVANCED_FACE('',(#22),#150,.F.);
#164=ADVANCED_FACE('',(#23),#18,.F.);
#165=ADVANCED_FACE('',(#24),#151,.T.);
#166=ADVANCED_FACE('',(#25,#16),#19,.T.);
#167=ADVANCED_FACE('',(#26),#152,.T.);
#168=ADVANCED_FACE('',(#27),#15,.F.);
#169=ADVANCED_FACE('',(#28),#14,.F.);
#170=ADVANCED_FACE('',(#29),#20,.T.);
#171=ADVANCED_FACE('',(#30,#17),#21,.T.);
#172=CLOSED_SHELL('',(#163,#164,#165,#166,#167,#168,#169,#170,#171));
#173=DERIVED_UNIT_ELEMENT(#175,1.);
#174=DERIVED_UNIT_ELEMENT(#358,3.);
#175=(
MASS_UNIT()
NAMED_UNIT(*)
SI_UNIT($,.GRAM.)
);
#176=DERIVED_UNIT((#173,#174));
#177=MEASURE_REPRESENTATION_ITEM('density measure',
POSITIVE_RATIO_MEASURE(1.),#176);
#178=PROPERTY_DEFINITION_REPRESENTATION(#183,#180);
#179=PROPERTY_DEFINITION_REPRESENTATION(#184,#181);
#180=REPRESENTATION('material name',(#182),#355);
#181=REPRESENTATION('density',(#177),#355);
#182=DESCRIPTIVE_REPRESENTATION_ITEM('Generic','Generic');
#183=PROPERTY_DEFINITION('material property','material name',#365);
#184=PROPERTY_DEFINITION('material property','density of part',#365);
#185=DATE_TIME_ROLE('creation_date');
#186=APPLIED_DATE_AND_TIME_ASSIGNMENT(#187,#185,(#365));
#187=DATE_AND_TIME(#188,#189);
#188=CALENDAR_DATE(2007,2,11);
#189=LOCAL_TIME(12,4,1.,#190);
#190=COORDINATED_UNIVERSAL_TIME_OFFSET(0,0,.BEHIND.);
#191=AXIS2_PLACEMENT_3D('placement',#278,#219,#220);
#192=AXIS2_PLACEMENT_3D('',#279,#221,#222);
#193=AXIS2_PLACEMENT_3D('',#282,#223,#224);
#194=AXIS2_PLACEMENT_3D('',#283,#225,#226);
#195=AXIS2_PLACEMENT_3D('',#287,#228,#229);
#196=AXIS2_PLACEMENT_3D('',#288,#230,#231);
#197=AXIS2_PLACEMENT_3D('',#289,#232,#233);
#198=AXIS2_PLACEMENT_3D('',#290,#234,#235);
#199=AXIS2_PLACEMENT_3D('',#293,#236,#237);
#200=AXIS2_PLACEMENT_3D('',#294,#238,#239);
#201=AXIS2_PLACEMENT_3D('',#298,#241,#242);
#202=AXIS2_PLACEMENT_3D('',#299,#243,#244);
#203=AXIS2_PLACEMENT_3D('',#300,#245,#246);
#204=AXIS2_PLACEMENT_3D('',#303,#247,#248);
#205=AXIS2_PLACEMENT_3D('',#304,#249,#250);
#206=AXIS2_PLACEMENT_3D('',#305,#251,#252);
#207=AXIS2_PLACEMENT_3D('',#308,#253,#254);
#208=AXIS2_PLACEMENT_3D('',#310,#255,#256);
#209=AXIS2_PLACEMENT_3D('',#311,#257,#258);
#210=AXIS2_PLACEMENT_3D('',#313,#260,#261);
#211=AXIS2_PLACEMENT_3D('',#315,#262,#263);
#212=AXIS2_PLACEMENT_3D('',#317,#264,#265);
#213=AXIS2_PLACEMENT_3D('',#318,#266,#267);
#214=AXIS2_PLACEMENT_3D('',#348,#268,#269);
#215=AXIS2_PLACEMENT_3D('',#349,#270,#271);
#216=AXIS2_PLACEMENT_3D('',#350,#272,#273);
#217=AXIS2_PLACEMENT_3D('',#351,#274,#275);
#218=AXIS2_PLACEMENT_3D('',#352,#276,#277);
#219=DIRECTION('axis',(0.,0.,1.));
#220=DIRECTION('refdir',(1.,0.,0.));
#221=DIRECTION('center_axis',(0.,-1.,2.22044604925031E-16));
#222=DIRECTION('ref_axis',(1.,0.,0.));
#223=DIRECTION('center_axis',(-2.70682946956229E-15,-1.,0.));
#224=DIRECTION('ref_axis',(1.,0.,0.));
#225=DIRECTION('center_axis',(-2.70682946956229E-15,-1.,0.));
#226=DIRECTION('ref_axis',(1.,0.,0.));
#227=DIRECTION('',(0.,-1.,2.22044604925031E-16));
#228=DIRECTION('center_axis',(0.,1.,-2.22044604925031E-16));
#229=DIRECTION('ref_axis',(1.,0.,0.));
#230=DIRECTION('center_axis',(0.,1.,-2.22044604925031E-16));
#231=DIRECTION('ref_axis',(1.,0.,0.));
#232=DIRECTION('center_axis',(0.,-1.,2.22044604925031E-16));
#233=DIRECTION('ref_axis',(0.,-2.22044604925031E-16,-1.));
#234=DIRECTION('center_axis',(-2.70682946956229E-15,-1.,0.));
#235=DIRECTION('ref_axis',(-1.,2.66453525910038E-15,0.));
#236=DIRECTION('center_axis',(-2.70682946956229E-15,-1.,0.));
#237=DIRECTION('ref_axis',(-1.,2.66453525910038E-15,0.));
#238=DIRECTION('center_axis',(-2.70682946956229E-15,-1.,0.));
#239=DIRECTION('ref_axis',(-1.,2.66453525910038E-15,0.));
#240=DIRECTION('',(2.70682946956229E-15,1.,0.));
#241=DIRECTION('center_axis',(-2.70682946956229E-15,-1.,0.));
#242=DIRECTION('ref_axis',(-1.,2.66453525910038E-15,0.));
#243=DIRECTION('center_axis',(-2.70682946956229E-15,-1.,0.));
#244=DIRECTION('ref_axis',(-1.,2.66453525910038E-15,0.));
#245=DIRECTION('center_axis',(-2.70682946956229E-15,-1.,0.));
#246=DIRECTION('ref_axis',(0.,0.,-1.));
#247=DIRECTION('center_axis',(-2.70682946956229E-15,-1.,0.));
#248=DIRECTION('ref_axis',(-1.,2.66453525910038E-15,0.));
#249=DIRECTION('center_axis',(-2.70682946956229E-15,-1.,0.));
#250=DIRECTION('ref_axis',(-1.,2.66453525910038E-15,0.));
#251=DIRECTION('center_axis',(-2.70682946956229E-15,-1.,0.));
#252=DIRECTION('ref_axis',(-1.,2.66453525910038E-15,0.));
#253=DIRECTION('center_axis',(-2.70682946956229E-15,-1.,0.));
#254=DIRECTION('ref_axis',(-1.,2.66453525910038E-15,0.));
#255=DIRECTION('center_axis',(-2.70682946956229E-15,-1.,0.));
#256=DIRECTION('ref_axis',(-1.,2.66453525910038E-15,0.));
#257=DIRECTION('center_axis',(-2.70682946956229E-15,-1.,0.));
#258=DIRECTION('ref_axis',(-1.,2.66453525910038E-15,0.));
#259=DIRECTION('',(2.70682946956229E-15,1.,0.));
#260=DIRECTION('center_axis',(-2.70682946956229E-15,-1.,0.));
#261=DIRECTION('ref_axis',(0.,0.,-1.));
#262=DIRECTION('center_axis',(-1.,2.70682946956229E-15,-1.22464679914735E-16));
#263=DIRECTION('ref_axis',(-1.22464679914735E-16,0.,1.));
#264=DIRECTION('center_axis',(-2.70682946956229E-15,-1.,0.));
#265=DIRECTION('ref_axis',(-1.,2.66453525910038E-15,0.));
#266=DIRECTION('center_axis',(-2.70682946956229E-15,-1.,0.));
#267=DIRECTION('ref_axis',(-1.,2.66453525910038E-15,0.));
#268=DIRECTION('center_axis',(-2.70682946956229E-15,-1.,0.));
#269=DIRECTION('ref_axis',(-1.,2.66453525910038E-15,0.));
#270=DIRECTION('center_axis',(-2.70682946956229E-15,-1.,0.));
#271=DIRECTION('ref_axis',(-1.,2.66453525910038E-15,0.));
#272=DIRECTION('center_axis',(-1.,2.70682946956229E-15,-1.22464679914735E-16));
#273=DIRECTION('ref_axis',(-1.22464679914735E-16,0.,1.));
#274=DIRECTION('center_axis',(-2.70682946956229E-15,-1.,0.));
#275=DIRECTION('ref_axis',(0.,0.,-1.));
#276=DIRECTION('center_axis',(2.70682946956229E-15,1.,0.));
#277=DIRECTION('ref_axis',(0.,0.,1.));
#278=CARTESIAN_POINT('',(0.,0.,0.));
#279=CARTESIAN_POINT('Origin',(4.60161009825588E-14,17.,0.));
#280=CARTESIAN_POINT('',(3.50000000000005,17.,0.));
#281=CARTESIAN_POINT('',(-3.49999999999995,17.,-4.2862637970158E-16));
#282=CARTESIAN_POINT('Origin',(4.60161009825588E-14,17.,-6.31088724176809E-30));
#283=CARTESIAN_POINT('Origin',(4.60161009825588E-14,17.,-6.31088724176809E-30));
#284=CARTESIAN_POINT('',(-3.49999999999995,8.82204479134345,1.38724445369917E-15));
#285=CARTESIAN_POINT('',(-3.49999999999995,17.,-4.28626379701574E-16));
#286=CARTESIAN_POINT('',(3.50000000000005,8.82204479134345,1.81587083340074E-15));
#287=CARTESIAN_POINT('Origin',(4.60161009825588E-14,8.82204479134345,1.81587083340074E-15));
#288=CARTESIAN_POINT('Origin',(4.60161009825588E-14,8.82204479134345,1.81587083340074E-15));
#289=CARTESIAN_POINT('Origin',(4.60161009825588E-14,8.82204479134345,1.81587083340074E-15));
#290=CARTESIAN_POINT('Origin',(4.39859788803871E-14,16.25,0.));
#291=CARTESIAN_POINT('',(-9.50000000000001,15.5,0.));
#292=CARTESIAN_POINT('',(9.50000000000009,15.5,1.16341445918999E-15));
#293=CARTESIAN_POINT('Origin',(4.19558567782154E-14,15.5,0.));
#294=CARTESIAN_POINT('Origin',(4.19558567782154E-14,15.5,0.));
#295=CARTESIAN_POINT('',(9.5000000000001,17.,1.16341445918999E-15));
#296=CARTESIAN_POINT('',(9.5000000000001,16.25,1.16341445918999E-15));
#297=CARTESIAN_POINT('',(-9.50000000000001,17.,0.));
#298=CARTESIAN_POINT('Origin',(4.60161009825588E-14,17.,0.));
#299=CARTESIAN_POINT('Origin',(4.60161009825588E-14,17.,0.));
#300=CARTESIAN_POINT('Origin',(-8.50000000000001,15.5,0.));
#301=CARTESIAN_POINT('',(-7.50000000000001,15.5,0.));
#302=CARTESIAN_POINT('',(7.50000000000007,15.5,9.18485099360518E-16));
#303=CARTESIAN_POINT('Origin',(4.19558567782154E-14,15.5,0.));
#304=CARTESIAN_POINT('Origin',(4.19558567782154E-14,15.5,0.));
#305=CARTESIAN_POINT('Origin',(3.42281241354713E-14,12.6450980825941,0.));
#306=CARTESIAN_POINT('',(-7.49999999999998,9.79019616518826,0.));
#307=CARTESIAN_POINT('',(7.50000000000005,9.79019616518822,9.18485099360518E-16));
#308=CARTESIAN_POINT('Origin',(2.65003914927272E-14,9.79019616518824,0.));
#309=CARTESIAN_POINT('',(2.57268674916432E-14,9.79019616518825,7.5));
#310=CARTESIAN_POINT('Origin',(2.65003914927272E-14,9.79019616518824,0.));
#311=CARTESIAN_POINT('Origin',(2.65003914927272E-14,9.79019616518824,0.));
#312=CARTESIAN_POINT('',(7.50000000000006,12.6450980825941,9.18485099360518E-16));
#313=CARTESIAN_POINT('Origin',(2.66453525910038E-14,9.79019616518824,0.));
#314=CARTESIAN_POINT('',(2.30144430810773E-14,8.82204479134345,8.24963443263411));
#315=CARTESIAN_POINT('Origin',(2.56044028117285E-14,9.79019616518824,8.5));
#316=CARTESIAN_POINT('',(-8.24963443263409,8.82204479134347,0.));
#317=CARTESIAN_POINT('Origin',(2.38797708230069E-14,8.82204479134345,0.));
#318=CARTESIAN_POINT('Origin',(2.38797708230069E-14,8.82204479134345,0.));
#319=CARTESIAN_POINT('Ctrl Pts',(2.387901622861E-14,8.82204479134404,8.24963443263426));
#320=CARTESIAN_POINT('Ctrl Pts',(-8.24963443263424,8.82204479134406,8.24963443263426));
#321=CARTESIAN_POINT('Ctrl Pts',(-8.24963443263424,8.82204479134406,0.));
#322=CARTESIAN_POINT('Ctrl Pts',(-8.24963443263424,8.82204479134406,-8.24963443263426));
#323=CARTESIAN_POINT('Ctrl Pts',(2.387901622861E-14,8.82204479134404,-8.24963443263426));
#324=CARTESIAN_POINT('Ctrl Pts',(8.24963443263428,8.82204479134402,-8.24963443263426));
#325=CARTESIAN_POINT('Ctrl Pts',(8.24963443263429,8.82204479134402,0.));
#326=CARTESIAN_POINT('Ctrl Pts',(8.24963443263428,8.82204479134402,8.24963443263426));
#327=CARTESIAN_POINT('Ctrl Pts',(2.387901622861E-14,8.82204479134404,8.24963443263426));
#328=CARTESIAN_POINT('Ctrl Pts',(1.84938164455403E-14,6.83255862547169,
15.9428798936594));
#329=CARTESIAN_POINT('Ctrl Pts',(-15.9428798936594,6.83255862547173,15.9428798936594));
#330=CARTESIAN_POINT('Ctrl Pts',(-15.9428798936594,6.83255862547173,3.94430452610506E-30));
#331=CARTESIAN_POINT('Ctrl Pts',(-15.9428798936594,6.83255862547173,-15.9428798936594));
#332=CARTESIAN_POINT('Ctrl Pts',(1.84938164455402E-14,6.83255862547169,
-15.9428798936594));
#333=CARTESIAN_POINT('Ctrl Pts',(15.9428798936594,6.83255862547165,-15.9428798936594));
#334=CARTESIAN_POINT('Ctrl Pts',(15.9428798936594,6.83255862547165,-3.94430452610506E-30));
#335=CARTESIAN_POINT('Ctrl Pts',(15.9428798936594,6.83255862547165,15.9428798936594));
#336=CARTESIAN_POINT('Ctrl Pts',(1.84938164455403E-14,6.83255862547169,
15.9428798936594));
#337=CARTESIAN_POINT('Ctrl Pts',(-7.54594398636169E-19,-3.88578058618805E-14,
19.9999999999999));
#338=CARTESIAN_POINT('Ctrl Pts',(-19.9999999999999,1.52787835293651E-14,
19.9999999999999));
#339=CARTESIAN_POINT('Ctrl Pts',(-19.9999999999999,1.52787835293651E-14,
0.));
#340=CARTESIAN_POINT('Ctrl Pts',(-19.9999999999999,1.52787835293651E-14,
-19.9999999999999));
#341=CARTESIAN_POINT('Ctrl Pts',(-7.54594398636169E-19,-3.88578058618805E-14,
-19.9999999999999));
#342=CARTESIAN_POINT('Ctrl Pts',(19.9999999999999,-9.29943952531261E-14,
-19.9999999999999));
#343=CARTESIAN_POINT('Ctrl Pts',(19.9999999999999,-9.29943952531261E-14,
0.));
#344=CARTESIAN_POINT('Ctrl Pts',(19.9999999999999,-9.29943952531261E-14,
19.9999999999999));
#345=CARTESIAN_POINT('Ctrl Pts',(-7.54594398636169E-19,-3.88578058618805E-14,
19.9999999999999));
#346=CARTESIAN_POINT('',(-19.9999999999999,1.59872115546023E-14,0.));
#347=CARTESIAN_POINT('',(-2.45004819269333E-15,-3.77475828372553E-14,19.9999999999999));
#348=CARTESIAN_POINT('Origin',(-1.53750958107837E-28,-3.81493778366434E-14,
0.));
#349=CARTESIAN_POINT('Origin',(-1.53750958107837E-28,-3.81493778366434E-14,
0.));
#350=CARTESIAN_POINT('Origin',(-2.70645125388128E-14,-9.843471225734,3.42270071747144));
#351=CARTESIAN_POINT('Origin',(-9.99999999999997,7.99360577730113E-15,0.));
#352=CARTESIAN_POINT('Origin',(-4.74999999999998,17.,0.));
#353=UNCERTAINTY_MEASURE_WITH_UNIT(LENGTH_MEASURE(0.01),#357,
'DISTANCE_ACCURACY_VALUE',
'Maximum model space distance between geometric entities at asserted c
onnectivities');
#354=UNCERTAINTY_MEASURE_WITH_UNIT(LENGTH_MEASURE(0.01),#357,
'DISTANCE_ACCURACY_VALUE',
'Maximum model space distance between geometric entities at asserted c
onnectivities');
#355=(
GEOMETRIC_REPRESENTATION_CONTEXT(3)
GLOBAL_UNCERTAINTY_ASSIGNED_CONTEXT((#353))
GLOBAL_UNIT_ASSIGNED_CONTEXT((#357,#360,#359))
REPRESENTATION_CONTEXT('','3D')
);
#356=(
GEOMETRIC_REPRESENTATION_CONTEXT(3)
GLOBAL_UNCERTAINTY_ASSIGNED_CONTEXT((#354))
GLOBAL_UNIT_ASSIGNED_CONTEXT((#357,#360,#359))
REPRESENTATION_CONTEXT('','3D')
);
#357=(
LENGTH_UNIT()
NAMED_UNIT(*)
SI_UNIT(.MILLI.,.METRE.)
);
#358=(
LENGTH_UNIT()
NAMED_UNIT(*)
SI_UNIT(.CENTI.,.METRE.)
);
#359=(
NAMED_UNIT(*)
SI_UNIT($,.STERADIAN.)
SOLID_ANGLE_UNIT()
);
#360=(
NAMED_UNIT(*)
PLANE_ANGLE_UNIT()
SI_UNIT($,.RADIAN.)
);
#361=SHAPE_DEFINITION_REPRESENTATION(#362,#363);
#362=PRODUCT_DEFINITION_SHAPE('',$,#365);
#363=SHAPE_REPRESENTATION('',(#191),#355);
#364=PRODUCT_DEFINITION_CONTEXT('part definition',#369,'design');
#365=PRODUCT_DEFINITION('vs40','vs40',#366,#364);
#366=PRODUCT_DEFINITION_FORMATION('',$,#371);
#367=PRODUCT_RELATED_PRODUCT_CATEGORY('vs40','vs40',(#371));
#368=APPLICATION_PROTOCOL_DEFINITION('international standard',
'automotive_design',2009,#369);
#369=APPLICATION_CONTEXT(
'Core Data for Automotive Mechanical Design Process');
#370=PRODUCT_CONTEXT('part definition',#369,'mechanical');
#371=PRODUCT('vs40','vs40',$,(#370));
#372=PRESENTATION_STYLE_ASSIGNMENT((#374));
#373=PRESENTATION_STYLE_ASSIGNMENT((#375));
#374=SURFACE_STYLE_USAGE(.BOTH.,#376);
#375=SURFACE_STYLE_USAGE(.BOTH.,#377);
#376=SURFACE_SIDE_STYLE('',(#378));
#377=SURFACE_SIDE_STYLE('',(#379));
#378=SURFACE_STYLE_FILL_AREA(#380);
#379=SURFACE_STYLE_FILL_AREA(#381);
#380=FILL_AREA_STYLE('',(#382));
#381=FILL_AREA_STYLE('',(#383));
#382=FILL_AREA_STYLE_COLOUR('',#384);
#383=FILL_AREA_STYLE_COLOUR('',#385);
#384=COLOUR_RGB('',0.749019607843137,0.749019607843137,0.749019607843137);
#385=COLOUR_RGB('',0.313725490196078,0.313725490196078,0.313725490196078);
ENDSEC;
END-ISO-10303-21;
