ISO-10303-21;
HEADER;
/* Generated by software containing ST-Developer
 * from STEP Tools, Inc. (www.steptools.com) 
 */

FILE_DESCRIPTION(
/* description */ (''),
/* implementation_level */ '2;1');

FILE_NAME(
/* name */ 'C:\\Users\\enginyeria\\Desktop\\renderos\\vtl200sb.stp',
/* time_stamp */ '2020-11-11T12:21:15+01:00',
/* author */ ('enginyeria'),
/* organization */ (''),
/* preprocessor_version */ 'ST-DEVELOPER v17.2',
/* originating_system */ 'Autodesk Inventor 2019',
/* authorisation */ '');

FILE_SCHEMA (('CONFIG_CONTROL_DESIGN'));
ENDSEC;

DATA;
#10=MECHANICAL_DESIGN_GEOMETRIC_PRESENTATION_REPRESENTATION('',(#187,#188,
#189,#190,#191,#192,#193,#194,#195,#196,#197,#198,#199,#200),#397);
#11=SHAPE_REPRESENTATION_RELATIONSHIP('SRR','None',#404,#12);
#12=ADVANCED_BREP_SHAPE_REPRESENTATION('',(#13,#14),#396);
#13=MANIFOLD_SOLID_BREP('S\X\F3lido1',#213);
#14=MANIFOLD_SOLID_BREP('S\X\F3lido4',#214);
#15=FACE_BOUND('',#41,.T.);
#16=FACE_BOUND('',#45,.T.);
#17=FACE_BOUND('',#49,.T.);
#18=PLANE('',#240);
#19=PLANE('',#248);
#20=PLANE('',#257);
#21=PLANE('',#258);
#22=PLANE('',#264);
#23=CYLINDRICAL_SURFACE('',#238,5.7225);
#24=CYLINDRICAL_SURFACE('',#245,10.4750000000001);
#25=CYLINDRICAL_SURFACE('',#254,74.5);
#26=FACE_OUTER_BOUND('',#38,.T.);
#27=FACE_OUTER_BOUND('',#39,.T.);
#28=FACE_OUTER_BOUND('',#40,.T.);
#29=FACE_OUTER_BOUND('',#42,.T.);
#30=FACE_OUTER_BOUND('',#43,.T.);
#31=FACE_OUTER_BOUND('',#44,.T.);
#32=FACE_OUTER_BOUND('',#46,.T.);
#33=FACE_OUTER_BOUND('',#47,.T.);
#34=FACE_OUTER_BOUND('',#48,.T.);
#35=FACE_OUTER_BOUND('',#50,.T.);
#36=FACE_OUTER_BOUND('',#51,.T.);
#37=FACE_OUTER_BOUND('',#52,.T.);
#38=EDGE_LOOP('',(#131,#132,#133,#134,#135));
#39=EDGE_LOOP('',(#136,#137,#138,#139,#140));
#40=EDGE_LOOP('',(#141));
#41=EDGE_LOOP('',(#142));
#42=EDGE_LOOP('',(#143,#144,#145,#146,#147));
#43=EDGE_LOOP('',(#148,#149,#150,#151,#152,#153));
#44=EDGE_LOOP('',(#154,#155));
#45=EDGE_LOOP('',(#156,#157));
#46=EDGE_LOOP('',(#158,#159,#160,#161,#162,#163));
#47=EDGE_LOOP('',(#164,#165,#166,#167,#168,#169));
#48=EDGE_LOOP('',(#170,#171));
#49=EDGE_LOOP('',(#172));
#50=EDGE_LOOP('',(#173,#174));
#51=EDGE_LOOP('',(#175,#176,#177,#178,#179,#180));
#52=EDGE_LOOP('',(#181,#182));
#53=LINE('',#341,#60);
#54=LINE('',#347,#61);
#55=LINE('',#356,#62);
#56=LINE('',#363,#63);
#57=LINE('',#374,#64);
#58=LINE('',#380,#65);
#59=LINE('',#392,#66);
#60=VECTOR('',#271,5.9725);
#61=VECTOR('',#278,5.7225);
#62=VECTOR('',#289,9.89500000000015);
#63=VECTOR('',#298,10.4750000000001);
#64=VECTOR('',#311,65.8581935431784);
#65=VECTOR('',#318,74.5);
#66=VECTOR('',#333,87.25);
#67=CIRCLE('',#235,6.2225);
#68=CIRCLE('',#236,5.7225);
#69=CIRCLE('',#237,5.7225);
#70=CIRCLE('',#239,5.7225);
#71=CIRCLE('',#241,9.3150000000002);
#72=CIRCLE('',#243,10.4750000000001);
#73=CIRCLE('',#244,10.4750000000001);
#74=CIRCLE('',#246,10.475);
#75=CIRCLE('',#247,10.475);
#76=CIRCLE('',#249,57.2163870863568);
#77=CIRCLE('',#250,57.2163870863568);
#78=CIRCLE('',#252,74.5);
#79=CIRCLE('',#253,74.5);
#80=CIRCLE('',#255,74.5);
#81=CIRCLE('',#256,74.5);
#82=CIRCLE('',#259,73.5);
#83=CIRCLE('',#260,73.5);
#84=CIRCLE('',#262,101.);
#85=CIRCLE('',#263,101.);
#86=VERTEX_POINT('',#338);
#87=VERTEX_POINT('',#340);
#88=VERTEX_POINT('',#342);
#89=VERTEX_POINT('',#346);
#90=VERTEX_POINT('',#350);
#91=VERTEX_POINT('',#353);
#92=VERTEX_POINT('',#354);
#93=VERTEX_POINT('',#359);
#94=VERTEX_POINT('',#360);
#95=VERTEX_POINT('',#365);
#96=VERTEX_POINT('',#366);
#97=VERTEX_POINT('',#370);
#98=VERTEX_POINT('',#371);
#99=VERTEX_POINT('',#376);
#100=VERTEX_POINT('',#377);
#101=VERTEX_POINT('',#383);
#102=VERTEX_POINT('',#384);
#103=VERTEX_POINT('',#388);
#104=VERTEX_POINT('',#389);
#105=EDGE_CURVE('',#86,#86,#67,.T.);
#106=EDGE_CURVE('',#86,#87,#53,.T.);
#107=EDGE_CURVE('',#87,#88,#68,.T.);
#108=EDGE_CURVE('',#88,#87,#69,.T.);
#109=EDGE_CURVE('',#88,#89,#54,.T.);
#110=EDGE_CURVE('',#89,#89,#70,.T.);
#111=EDGE_CURVE('',#90,#90,#71,.T.);
#112=EDGE_CURVE('',#91,#92,#72,.T.);
#113=EDGE_CURVE('',#92,#90,#55,.T.);
#114=EDGE_CURVE('',#92,#91,#73,.T.);
#115=EDGE_CURVE('',#93,#94,#74,.T.);
#116=EDGE_CURVE('',#94,#93,#75,.T.);
#117=EDGE_CURVE('',#94,#91,#56,.T.);
#118=EDGE_CURVE('',#95,#96,#76,.T.);
#119=EDGE_CURVE('',#96,#95,#77,.T.);
#120=EDGE_CURVE('',#97,#98,#78,.T.);
#121=EDGE_CURVE('',#98,#97,#79,.T.);
#122=EDGE_CURVE('',#98,#96,#57,.T.);
#123=EDGE_CURVE('',#99,#100,#80,.T.);
#124=EDGE_CURVE('',#100,#99,#81,.T.);
#125=EDGE_CURVE('',#100,#98,#58,.T.);
#126=EDGE_CURVE('',#101,#102,#82,.T.);
#127=EDGE_CURVE('',#102,#101,#83,.T.);
#128=EDGE_CURVE('',#103,#104,#84,.T.);
#129=EDGE_CURVE('',#104,#103,#85,.T.);
#130=EDGE_CURVE('',#104,#102,#59,.T.);
#131=ORIENTED_EDGE('',*,*,#105,.T.);
#132=ORIENTED_EDGE('',*,*,#106,.T.);
#133=ORIENTED_EDGE('',*,*,#107,.T.);
#134=ORIENTED_EDGE('',*,*,#108,.T.);
#135=ORIENTED_EDGE('',*,*,#106,.F.);
#136=ORIENTED_EDGE('',*,*,#107,.F.);
#137=ORIENTED_EDGE('',*,*,#108,.F.);
#138=ORIENTED_EDGE('',*,*,#109,.T.);
#139=ORIENTED_EDGE('',*,*,#110,.F.);
#140=ORIENTED_EDGE('',*,*,#109,.F.);
#141=ORIENTED_EDGE('',*,*,#111,.F.);
#142=ORIENTED_EDGE('',*,*,#105,.F.);
#143=ORIENTED_EDGE('',*,*,#112,.T.);
#144=ORIENTED_EDGE('',*,*,#113,.T.);
#145=ORIENTED_EDGE('',*,*,#111,.T.);
#146=ORIENTED_EDGE('',*,*,#113,.F.);
#147=ORIENTED_EDGE('',*,*,#114,.T.);
#148=ORIENTED_EDGE('',*,*,#115,.F.);
#149=ORIENTED_EDGE('',*,*,#116,.F.);
#150=ORIENTED_EDGE('',*,*,#117,.T.);
#151=ORIENTED_EDGE('',*,*,#114,.F.);
#152=ORIENTED_EDGE('',*,*,#112,.F.);
#153=ORIENTED_EDGE('',*,*,#117,.F.);
#154=ORIENTED_EDGE('',*,*,#118,.F.);
#155=ORIENTED_EDGE('',*,*,#119,.F.);
#156=ORIENTED_EDGE('',*,*,#115,.T.);
#157=ORIENTED_EDGE('',*,*,#116,.T.);
#158=ORIENTED_EDGE('',*,*,#120,.F.);
#159=ORIENTED_EDGE('',*,*,#121,.F.);
#160=ORIENTED_EDGE('',*,*,#122,.T.);
#161=ORIENTED_EDGE('',*,*,#119,.T.);
#162=ORIENTED_EDGE('',*,*,#118,.T.);
#163=ORIENTED_EDGE('',*,*,#122,.F.);
#164=ORIENTED_EDGE('',*,*,#123,.F.);
#165=ORIENTED_EDGE('',*,*,#124,.F.);
#166=ORIENTED_EDGE('',*,*,#125,.T.);
#167=ORIENTED_EDGE('',*,*,#121,.T.);
#168=ORIENTED_EDGE('',*,*,#120,.T.);
#169=ORIENTED_EDGE('',*,*,#125,.F.);
#170=ORIENTED_EDGE('',*,*,#123,.T.);
#171=ORIENTED_EDGE('',*,*,#124,.T.);
#172=ORIENTED_EDGE('',*,*,#110,.T.);
#173=ORIENTED_EDGE('',*,*,#126,.F.);
#174=ORIENTED_EDGE('',*,*,#127,.F.);
#175=ORIENTED_EDGE('',*,*,#128,.F.);
#176=ORIENTED_EDGE('',*,*,#129,.F.);
#177=ORIENTED_EDGE('',*,*,#130,.T.);
#178=ORIENTED_EDGE('',*,*,#127,.T.);
#179=ORIENTED_EDGE('',*,*,#126,.T.);
#180=ORIENTED_EDGE('',*,*,#130,.F.);
#181=ORIENTED_EDGE('',*,*,#128,.T.);
#182=ORIENTED_EDGE('',*,*,#129,.T.);
#183=CONICAL_SURFACE('',#234,5.9725,0.78539816339745);
#184=CONICAL_SURFACE('',#242,9.89500000000015,0.785398163397418);
#185=CONICAL_SURFACE('',#251,65.8581935431784,1.01229096615671);
#186=CONICAL_SURFACE('',#261,87.25,1.04385309960547);
#187=STYLED_ITEM('',(#414),#201);
#188=STYLED_ITEM('',(#414),#202);
#189=STYLED_ITEM('',(#415),#203);
#190=STYLED_ITEM('',(#414),#204);
#191=STYLED_ITEM('',(#415),#205);
#192=STYLED_ITEM('',(#416),#206);
#193=STYLED_ITEM('',(#416),#207);
#194=STYLED_ITEM('',(#416),#208);
#195=STYLED_ITEM('',(#416),#209);
#196=STYLED_ITEM('',(#413),#13);
#197=STYLED_ITEM('',(#417),#210);
#198=STYLED_ITEM('',(#417),#211);
#199=STYLED_ITEM('',(#417),#212);
#200=STYLED_ITEM('',(#413),#14);
#201=ADVANCED_FACE('',(#26),#183,.F.);
#202=ADVANCED_FACE('',(#27),#23,.F.);
#203=ADVANCED_FACE('',(#28,#15),#18,.T.);
#204=ADVANCED_FACE('',(#29),#184,.T.);
#205=ADVANCED_FACE('',(#30),#24,.T.);
#206=ADVANCED_FACE('',(#31,#16),#19,.T.);
#207=ADVANCED_FACE('',(#32),#185,.T.);
#208=ADVANCED_FACE('',(#33),#25,.T.);
#209=ADVANCED_FACE('',(#34,#17),#20,.T.);
#210=ADVANCED_FACE('',(#35),#21,.T.);
#211=ADVANCED_FACE('',(#36),#186,.T.);
#212=ADVANCED_FACE('',(#37),#22,.T.);
#213=CLOSED_SHELL('',(#201,#202,#203,#204,#205,#206,#207,#208,#209));
#214=CLOSED_SHELL('',(#210,#211,#212));
#215=DERIVED_UNIT_ELEMENT(#217,1.);
#216=DERIVED_UNIT_ELEMENT(#399,3.);
#217=(
MASS_UNIT()
NAMED_UNIT(*)
SI_UNIT($,.GRAM.)
);
#218=DERIVED_UNIT((#215,#216));
#219=MEASURE_REPRESENTATION_ITEM('density measure',
POSITIVE_RATIO_MEASURE(1.),#218);
#220=PROPERTY_DEFINITION_REPRESENTATION(#225,#222);
#221=PROPERTY_DEFINITION_REPRESENTATION(#226,#223);
#222=REPRESENTATION('material name',(#224),#396);
#223=REPRESENTATION('density',(#219),#396);
#224=DESCRIPTIVE_REPRESENTATION_ITEM('Gen\X\E9rico','Gen\X\E9rico');
#225=PROPERTY_DEFINITION('material property','material name',#406);
#226=PROPERTY_DEFINITION('material property','density of part',#406);
#227=DATE_TIME_ROLE('creation_date');
#228=CC_DESIGN_DATE_AND_TIME_ASSIGNMENT(#229,#227,(#406));
#229=DATE_AND_TIME(#230,#231);
#230=CALENDAR_DATE(2020,11,11);
#231=LOCAL_TIME(12,17,14.,#232);
#232=COORDINATED_UNIVERSAL_TIME_OFFSET(0,0,.BEHIND.);
#233=AXIS2_PLACEMENT_3D('placement',#336,#265,#266);
#234=AXIS2_PLACEMENT_3D('',#337,#267,#268);
#235=AXIS2_PLACEMENT_3D('',#339,#269,#270);
#236=AXIS2_PLACEMENT_3D('',#343,#272,#273);
#237=AXIS2_PLACEMENT_3D('',#344,#274,#275);
#238=AXIS2_PLACEMENT_3D('',#345,#276,#277);
#239=AXIS2_PLACEMENT_3D('',#348,#279,#280);
#240=AXIS2_PLACEMENT_3D('',#349,#281,#282);
#241=AXIS2_PLACEMENT_3D('',#351,#283,#284);
#242=AXIS2_PLACEMENT_3D('',#352,#285,#286);
#243=AXIS2_PLACEMENT_3D('',#355,#287,#288);
#244=AXIS2_PLACEMENT_3D('',#357,#290,#291);
#245=AXIS2_PLACEMENT_3D('',#358,#292,#293);
#246=AXIS2_PLACEMENT_3D('',#361,#294,#295);
#247=AXIS2_PLACEMENT_3D('',#362,#296,#297);
#248=AXIS2_PLACEMENT_3D('',#364,#299,#300);
#249=AXIS2_PLACEMENT_3D('',#367,#301,#302);
#250=AXIS2_PLACEMENT_3D('',#368,#303,#304);
#251=AXIS2_PLACEMENT_3D('',#369,#305,#306);
#252=AXIS2_PLACEMENT_3D('',#372,#307,#308);
#253=AXIS2_PLACEMENT_3D('',#373,#309,#310);
#254=AXIS2_PLACEMENT_3D('',#375,#312,#313);
#255=AXIS2_PLACEMENT_3D('',#378,#314,#315);
#256=AXIS2_PLACEMENT_3D('',#379,#316,#317);
#257=AXIS2_PLACEMENT_3D('',#381,#319,#320);
#258=AXIS2_PLACEMENT_3D('',#382,#321,#322);
#259=AXIS2_PLACEMENT_3D('',#385,#323,#324);
#260=AXIS2_PLACEMENT_3D('',#386,#325,#326);
#261=AXIS2_PLACEMENT_3D('',#387,#327,#328);
#262=AXIS2_PLACEMENT_3D('',#390,#329,#330);
#263=AXIS2_PLACEMENT_3D('',#391,#331,#332);
#264=AXIS2_PLACEMENT_3D('',#393,#334,#335);
#265=DIRECTION('axis',(0.,0.,1.));
#266=DIRECTION('refdir',(1.,0.,0.));
#267=DIRECTION('center_axis',(-2.79611724720406E-15,1.,0.));
#268=DIRECTION('ref_axis',(-1.,-2.7961172472041E-15,0.));
#269=DIRECTION('center_axis',(-2.7961172472041E-15,1.,0.));
#270=DIRECTION('ref_axis',(-1.,-2.7961172472041E-15,0.));
#271=DIRECTION('',(-0.707106781186547,-0.707106781186548,8.65956056235495E-17));
#272=DIRECTION('center_axis',(2.7961172472041E-15,-1.,0.));
#273=DIRECTION('ref_axis',(-1.,-2.7961172472041E-15,0.));
#274=DIRECTION('center_axis',(2.7961172472041E-15,-1.,0.));
#275=DIRECTION('ref_axis',(-1.,-2.7961172472041E-15,0.));
#276=DIRECTION('center_axis',(-2.7961172472041E-15,1.,0.));
#277=DIRECTION('ref_axis',(1.,2.7961172472041E-15,0.));
#278=DIRECTION('',(2.7961172472041E-15,-1.,0.));
#279=DIRECTION('center_axis',(-2.7961172472041E-15,1.,0.));
#280=DIRECTION('ref_axis',(1.,2.7961172472041E-15,0.));
#281=DIRECTION('center_axis',(-2.7961172472041E-15,1.,0.));
#282=DIRECTION('ref_axis',(0.,0.,1.));
#283=DIRECTION('center_axis',(2.7961172472041E-15,-1.,0.));
#284=DIRECTION('ref_axis',(-1.,-2.7961172472041E-15,0.));
#285=DIRECTION('center_axis',(2.7961172472041E-15,-1.,0.));
#286=DIRECTION('ref_axis',(-1.,-2.7961172472041E-15,0.));
#287=DIRECTION('center_axis',(-2.7961172472041E-15,1.,0.));
#288=DIRECTION('ref_axis',(-1.,-2.7961172472041E-15,0.));
#289=DIRECTION('',(-0.707106781186528,0.707106781186567,-8.65956056235467E-17));
#290=DIRECTION('center_axis',(-2.7961172472041E-15,1.,0.));
#291=DIRECTION('ref_axis',(-1.,-2.7961172472041E-15,0.));
#292=DIRECTION('center_axis',(2.7961172472041E-15,-1.,0.));
#293=DIRECTION('ref_axis',(1.,2.7961172472041E-15,0.));
#294=DIRECTION('center_axis',(2.7961172472041E-15,-1.,0.));
#295=DIRECTION('ref_axis',(1.,2.7961172472041E-15,0.));
#296=DIRECTION('center_axis',(2.7961172472041E-15,-1.,0.));
#297=DIRECTION('ref_axis',(1.,2.7961172472041E-15,0.));
#298=DIRECTION('',(-2.7961172472041E-15,1.,0.));
#299=DIRECTION('center_axis',(-2.7961172472041E-15,1.,0.));
#300=DIRECTION('ref_axis',(0.,0.,1.));
#301=DIRECTION('center_axis',(2.7961172472041E-15,-1.,0.));
#302=DIRECTION('ref_axis',(1.,2.7961172472041E-15,0.));
#303=DIRECTION('center_axis',(2.7961172472041E-15,-1.,0.));
#304=DIRECTION('ref_axis',(1.,2.7961172472041E-15,0.));
#305=DIRECTION('center_axis',(2.7961172472041E-15,-1.,0.));
#306=DIRECTION('ref_axis',(1.,2.7961172472041E-15,0.));
#307=DIRECTION('center_axis',(2.7961172472041E-15,-1.,0.));
#308=DIRECTION('ref_axis',(1.,2.7961172472041E-15,0.));
#309=DIRECTION('center_axis',(2.7961172472041E-15,-1.,0.));
#310=DIRECTION('ref_axis',(1.,2.7961172472041E-15,0.));
#311=DIRECTION('',(0.848048096156424,0.529919264233208,1.03855938648097E-16));
#312=DIRECTION('center_axis',(2.7961172472041E-15,-1.,0.));
#313=DIRECTION('ref_axis',(1.,2.7961172472041E-15,0.));
#314=DIRECTION('center_axis',(2.7961172472041E-15,-1.,0.));
#315=DIRECTION('ref_axis',(1.,2.7961172472041E-15,0.));
#316=DIRECTION('center_axis',(2.7961172472041E-15,-1.,0.));
#317=DIRECTION('ref_axis',(1.,2.7961172472041E-15,0.));
#318=DIRECTION('',(-2.7961172472041E-15,1.,0.));
#319=DIRECTION('center_axis',(2.7961172472041E-15,-1.,0.));
#320=DIRECTION('ref_axis',(0.,0.,-1.));
#321=DIRECTION('center_axis',(0.,1.,0.));
#322=DIRECTION('ref_axis',(0.,0.,1.));
#323=DIRECTION('center_axis',(0.,-1.,0.));
#324=DIRECTION('ref_axis',(1.,0.,0.));
#325=DIRECTION('center_axis',(0.,-1.,0.));
#326=DIRECTION('ref_axis',(1.,0.,0.));
#327=DIRECTION('center_axis',(0.,-1.,0.));
#328=DIRECTION('ref_axis',(1.,0.,0.));
#329=DIRECTION('center_axis',(0.,-1.,0.));
#330=DIRECTION('ref_axis',(1.,0.,0.));
#331=DIRECTION('center_axis',(0.,-1.,0.));
#332=DIRECTION('ref_axis',(1.,0.,0.));
#333=DIRECTION('',(0.864348337709378,0.502893578303635,1.05852142512413E-16));
#334=DIRECTION('center_axis',(0.,-1.,0.));
#335=DIRECTION('ref_axis',(0.,0.,-1.));
#336=CARTESIAN_POINT('',(0.,0.,0.));
#337=CARTESIAN_POINT('Origin',(-1.5728159515523E-13,56.25,0.));
#338=CARTESIAN_POINT('',(6.22249999999984,56.5,-7.62036470769441E-16));
#339=CARTESIAN_POINT('Origin',(-1.57980624467031E-13,56.5,0.));
#340=CARTESIAN_POINT('',(5.72249999999984,56.,7.00804130812073E-16));
#341=CARTESIAN_POINT('',(5.97249999999984,56.25,-7.31420300790757E-16));
#342=CARTESIAN_POINT('',(-5.72250000000016,56.,7.00804130812073E-16));
#343=CARTESIAN_POINT('Origin',(-1.56582565843429E-13,56.,0.));
#344=CARTESIAN_POINT('Origin',(-1.56582565843429E-13,56.,0.));
#345=CARTESIAN_POINT('Origin',(4.52023290241142E-13,-161.661064353839,0.));
#346=CARTESIAN_POINT('',(-5.7225,-1.60007809471255E-14,7.00804130812073E-16));
#347=CARTESIAN_POINT('',(-5.72249999999955,-161.661064353839,7.00804130812073E-16));
#348=CARTESIAN_POINT('Origin',(6.31088724176809E-29,0.,0.));
#349=CARTESIAN_POINT('Origin',(10.475,56.5,1.4210854715202E-13));
#350=CARTESIAN_POINT('',(9.31500000000004,56.5,1.43249305645426E-13));
#351=CARTESIAN_POINT('Origin',(-1.57850009993546E-13,56.5,1.4210854715202E-13));
#352=CARTESIAN_POINT('Origin',(-1.56228261990168E-13,55.92,1.4210854715202E-13));
#353=CARTESIAN_POINT('',(-10.4750000000003,55.34,1.40825729629913E-13));
#354=CARTESIAN_POINT('',(10.475,55.34,1.43391364674127E-13));
#355=CARTESIAN_POINT('Origin',(-1.54606513986789E-13,55.34,1.4210854715202E-13));
#356=CARTESIAN_POINT('',(9.89499999999999,55.92,1.43320335159776E-13));
#357=CARTESIAN_POINT('Origin',(-1.54606513986789E-13,55.34,1.4210854715202E-13));
#358=CARTESIAN_POINT('Origin',(-9.7733489178658E-14,35.,1.4210854715202E-13));
#359=CARTESIAN_POINT('',(10.475,13.5,1.4210854715202E-13));
#360=CARTESIAN_POINT('',(-10.4750000000001,13.5,1.40825729629913E-13));
#361=CARTESIAN_POINT('Origin',(-3.761696836377E-14,13.5,1.4210854715202E-13));
#362=CARTESIAN_POINT('Origin',(-3.761696836377E-14,13.5,1.4210854715202E-13));
#363=CARTESIAN_POINT('',(-10.4750000000002,35.,1.40825729629913E-13));
#364=CARTESIAN_POINT('Origin',(57.2163870863567,13.5,1.4210854715202E-13));
#365=CARTESIAN_POINT('',(57.2163870863567,13.5,1.4210854715202E-13));
#366=CARTESIAN_POINT('',(-57.2163870863568,13.4999999999996,1.35101560621612E-13));
#367=CARTESIAN_POINT('Origin',(-3.76169683637695E-14,13.4999999999998,1.4210854715202E-13));
#368=CARTESIAN_POINT('Origin',(-3.76169683637695E-14,13.4999999999998,1.4210854715202E-13));
#369=CARTESIAN_POINT('Origin',(-2.25179352288674E-14,8.0999999999998,1.4210854715202E-13));
#370=CARTESIAN_POINT('',(74.5,2.70000000000001,1.4210854715202E-13));
#371=CARTESIAN_POINT('',(-74.5,2.69999999999962,1.32984928498372E-13));
#372=CARTESIAN_POINT('Origin',(-7.41890209396528E-15,2.69999999999981,1.4210854715202E-13));
#373=CARTESIAN_POINT('Origin',(-7.41890209396528E-15,2.69999999999981,1.4210854715202E-13));
#374=CARTESIAN_POINT('',(-65.8581935431784,8.09999999999962,1.34043244559992E-13));
#375=CARTESIAN_POINT('Origin',(-3.64414381023971E-15,1.3499999999998,1.4210854715202E-13));
#376=CARTESIAN_POINT('',(74.5,-2.22044604925031E-15,1.4210854715202E-13));
#377=CARTESIAN_POINT('',(-74.5,-4.12725409404402E-13,1.32984928498372E-13));
#378=CARTESIAN_POINT('Origin',(1.30614473485825E-16,-2.04281036531029E-13,
1.4210854715202E-13));
#379=CARTESIAN_POINT('Origin',(1.30614473485825E-16,-2.04281036531029E-13,
1.4210854715202E-13));
#380=CARTESIAN_POINT('',(-74.5,1.34999999999959,1.32984928498372E-13));
#381=CARTESIAN_POINT('Origin',(0.,-2.22044604925031E-15,1.4210854715202E-13));
#382=CARTESIAN_POINT('Origin',(73.5,-2.22044604925031E-15,1.4210854715202E-13));
#383=CARTESIAN_POINT('',(73.5,-2.22044604925031E-15,1.4210854715202E-13));
#384=CARTESIAN_POINT('',(-73.5,-4.21884749357559E-14,1.33107393178287E-13));
#385=CARTESIAN_POINT('Origin',(2.5527916222205E-14,-2.22044604925031E-15,
1.4210854715202E-13));
#386=CARTESIAN_POINT('Origin',(2.5527916222205E-14,-2.22044604925031E-15,
1.4210854715202E-13));
#387=CARTESIAN_POINT('Origin',(2.5527916222205E-14,-8.,1.4210854715202E-13));
#388=CARTESIAN_POINT('',(101.,-16.,1.4210854715202E-13));
#389=CARTESIAN_POINT('',(-101.,-16.,1.29739614480632E-13));
#390=CARTESIAN_POINT('Origin',(2.5527916222205E-14,-16.,1.4210854715202E-13));
#391=CARTESIAN_POINT('Origin',(2.5527916222205E-14,-16.,1.4210854715202E-13));
#392=CARTESIAN_POINT('',(-87.25,-8.,1.31423503829459E-13));
#393=CARTESIAN_POINT('Origin',(2.5527916222205E-14,-16.,1.4210854715202E-13));
#394=UNCERTAINTY_MEASURE_WITH_UNIT(LENGTH_MEASURE(0.01),#398,
'DISTANCE_ACCURACY_VALUE',
'Maximum model space distance between geometric entities at asserted c
onnectivities');
#395=UNCERTAINTY_MEASURE_WITH_UNIT(LENGTH_MEASURE(0.01),#398,
'DISTANCE_ACCURACY_VALUE',
'Maximum model space distance between geometric entities at asserted c
onnectivities');
#396=(
GEOMETRIC_REPRESENTATION_CONTEXT(3)
GLOBAL_UNCERTAINTY_ASSIGNED_CONTEXT((#394))
GLOBAL_UNIT_ASSIGNED_CONTEXT((#398,#400,#401))
REPRESENTATION_CONTEXT('','3D')
);
#397=(
GEOMETRIC_REPRESENTATION_CONTEXT(3)
GLOBAL_UNCERTAINTY_ASSIGNED_CONTEXT((#395))
GLOBAL_UNIT_ASSIGNED_CONTEXT((#398,#400,#401))
REPRESENTATION_CONTEXT('','3D')
);
#398=(
LENGTH_UNIT()
NAMED_UNIT(*)
SI_UNIT(.MILLI.,.METRE.)
);
#399=(
LENGTH_UNIT()
NAMED_UNIT(*)
SI_UNIT(.CENTI.,.METRE.)
);
#400=(
NAMED_UNIT(*)
PLANE_ANGLE_UNIT()
SI_UNIT($,.RADIAN.)
);
#401=(
NAMED_UNIT(*)
SI_UNIT($,.STERADIAN.)
SOLID_ANGLE_UNIT()
);
#402=SHAPE_DEFINITION_REPRESENTATION(#403,#404);
#403=PRODUCT_DEFINITION_SHAPE('',$,#406);
#404=SHAPE_REPRESENTATION('',(#233),#396);
#405=DESIGN_CONTEXT('part definition',#410,'design');
#406=PRODUCT_DEFINITION('vtl200sb','vtl200sb',#407,#405);
#407=PRODUCT_DEFINITION_FORMATION('',$,#412);
#408=PRODUCT_RELATED_PRODUCT_CATEGORY('vtl200sb','vtl200sb',(#412));
#409=APPLICATION_PROTOCOL_DEFINITION('international standard',
'ap203_configuration_controlled_3d_design_of_mechanical_parts_and_asse
mblies_mim_lf',2004,#410);
#410=APPLICATION_CONTEXT(
'Configuration Controlled 3D Design of Mechanical Parts and Assemblies');
#411=MECHANICAL_CONTEXT('part definition',#410,'mechanical');
#412=PRODUCT('vtl200sb','vtl200sb',$,(#411));
#413=PRESENTATION_STYLE_ASSIGNMENT((#418));
#414=PRESENTATION_STYLE_ASSIGNMENT((#419));
#415=PRESENTATION_STYLE_ASSIGNMENT((#420));
#416=PRESENTATION_STYLE_ASSIGNMENT((#421));
#417=PRESENTATION_STYLE_ASSIGNMENT((#422));
#418=SURFACE_STYLE_USAGE(.BOTH.,#433);
#419=SURFACE_STYLE_USAGE(.BOTH.,#434);
#420=SURFACE_STYLE_USAGE(.BOTH.,#435);
#421=SURFACE_STYLE_USAGE(.BOTH.,#436);
#422=SURFACE_STYLE_USAGE(.BOTH.,#437);
#423=SURFACE_STYLE_RENDERING_WITH_PROPERTIES($,#453,(#428));
#424=SURFACE_STYLE_RENDERING_WITH_PROPERTIES($,#454,(#429));
#425=SURFACE_STYLE_RENDERING_WITH_PROPERTIES($,#455,(#430));
#426=SURFACE_STYLE_RENDERING_WITH_PROPERTIES($,#456,(#431));
#427=SURFACE_STYLE_RENDERING_WITH_PROPERTIES($,#457,(#432));
#428=SURFACE_STYLE_TRANSPARENT(0.);
#429=SURFACE_STYLE_TRANSPARENT(0.);
#430=SURFACE_STYLE_TRANSPARENT(0.);
#431=SURFACE_STYLE_TRANSPARENT(0.);
#432=SURFACE_STYLE_TRANSPARENT(0.);
#433=SURFACE_SIDE_STYLE('',(#438,#423));
#434=SURFACE_SIDE_STYLE('',(#439,#424));
#435=SURFACE_SIDE_STYLE('',(#440,#425));
#436=SURFACE_SIDE_STYLE('',(#441,#426));
#437=SURFACE_SIDE_STYLE('',(#442,#427));
#438=SURFACE_STYLE_FILL_AREA(#443);
#439=SURFACE_STYLE_FILL_AREA(#444);
#440=SURFACE_STYLE_FILL_AREA(#445);
#441=SURFACE_STYLE_FILL_AREA(#446);
#442=SURFACE_STYLE_FILL_AREA(#447);
#443=FILL_AREA_STYLE('',(#448));
#444=FILL_AREA_STYLE('',(#449));
#445=FILL_AREA_STYLE('',(#450));
#446=FILL_AREA_STYLE('',(#451));
#447=FILL_AREA_STYLE('',(#452));
#448=FILL_AREA_STYLE_COLOUR('',#453);
#449=FILL_AREA_STYLE_COLOUR('',#454);
#450=FILL_AREA_STYLE_COLOUR('',#455);
#451=FILL_AREA_STYLE_COLOUR('',#456);
#452=FILL_AREA_STYLE_COLOUR('',#457);
#453=COLOUR_RGB('',0.749019607843137,0.749019607843137,0.749019607843137);
#454=COLOUR_RGB('',0.313725490196078,0.313725490196078,0.313725490196078);
#455=COLOUR_RGB('',0.32156862745098,0.32156862745098,0.32156862745098);
#456=COLOUR_RGB('',0.,0.486274509803922,0.690196078431373);
#457=COLOUR_RGB('',0.823529411764706,0.823529411764706,0.823529411764706);
ENDSEC;
END-ISO-10303-21;
