ISO-10303-21;
HEADER;
/* Generated by software containing ST-Developer
 * from STEP Tools, Inc. (www.steptools.com) 
 */

FILE_DESCRIPTION(
/* description */ (''),
/* implementation_level */ '2;1');

FILE_NAME(
/* name */ 'C:\\Users\\enginyeria\\Desktop\\vz75sh60n7c3.stp',
/* time_stamp */ '2022-07-11T09:42:09+02:00',
/* author */ ('enginyeria'),
/* organization */ (''),
/* preprocessor_version */ 'ST-DEVELOPER v17.2',
/* originating_system */ 'Autodesk Inventor 2019',
/* authorisation */ '');

FILE_SCHEMA (('AUTOMOTIVE_DESIGN { 1 0 10303 214 3 1 1 }'));
ENDSEC;

DATA;
#10=MECHANICAL_DESIGN_GEOMETRIC_PRESENTATION_REPRESENTATION('',(#42,#43,
#44,#45,#46,#47,#48,#49,#50,#51,#52,#53,#54,#55),#516);
#11=SHAPE_REPRESENTATION_RELATIONSHIP('SRR','None',#523,#12);
#12=ADVANCED_BREP_SHAPE_REPRESENTATION('',(#13),#515);
#13=MANIFOLD_SOLID_BREP('S\X\F3lido2',#274);
#14=TOROIDAL_SURFACE('',#331,0.02999994,0.001499997);
#15=FACE_BOUND('',#75,.T.);
#16=FACE_BOUND('',#78,.T.);
#17=FACE_BOUND('',#82,.T.);
#18=CONICAL_SURFACE('',#303,0.00615048769900009,0.785398163397542);
#19=CONICAL_SURFACE('',#315,0.019499961,0.785398163397448);
#20=CONICAL_SURFACE('',#324,0.027999944,0.785398163397413);
#21=CONICAL_SURFACE('',#336,0.033999932,0.804504118515885);
#22=LINE('',#449,#30);
#23=LINE('',#452,#31);
#24=LINE('',#466,#32);
#25=LINE('',#477,#33);
#26=LINE('',#483,#34);
#27=LINE('',#494,#35);
#28=LINE('',#501,#36);
#29=LINE('',#512,#37);
#30=VECTOR('',#357,0.00572248855500009);
#31=VECTOR('',#360,0.00615048769900009);
#32=VECTOR('',#377,0.00874998249999996);
#33=VECTOR('',#390,0.019499961);
#34=VECTOR('',#397,0.01999996);
#35=VECTOR('',#410,0.027999944);
#36=VECTOR('',#417,0.0284999429999999);
#37=VECTOR('',#432,0.033999932);
#38=CYLINDRICAL_SURFACE('',#300,0.00572248855500009);
#39=CYLINDRICAL_SURFACE('',#309,0.00874998249999996);
#40=CYLINDRICAL_SURFACE('',#318,0.01999996);
#41=CYLINDRICAL_SURFACE('',#327,0.0284999429999999);
#42=STYLED_ITEM('',(#533),#261);
#43=STYLED_ITEM('',(#534),#262);
#44=STYLED_ITEM('',(#534),#263);
#45=STYLED_ITEM('',(#534),#264);
#46=STYLED_ITEM('',(#534),#265);
#47=STYLED_ITEM('',(#534),#266);
#48=STYLED_ITEM('',(#534),#267);
#49=STYLED_ITEM('',(#534),#268);
#50=STYLED_ITEM('',(#533),#269);
#51=STYLED_ITEM('',(#533),#270);
#52=STYLED_ITEM('',(#533),#271);
#53=STYLED_ITEM('',(#533),#272);
#54=STYLED_ITEM('',(#533),#273);
#55=STYLED_ITEM('',(#532),#13);
#56=FACE_OUTER_BOUND('',#70,.T.);
#57=FACE_OUTER_BOUND('',#71,.T.);
#58=FACE_OUTER_BOUND('',#72,.T.);
#59=FACE_OUTER_BOUND('',#73,.T.);
#60=FACE_OUTER_BOUND('',#74,.T.);
#61=FACE_OUTER_BOUND('',#76,.T.);
#62=FACE_OUTER_BOUND('',#77,.T.);
#63=FACE_OUTER_BOUND('',#79,.T.);
#64=FACE_OUTER_BOUND('',#80,.T.);
#65=FACE_OUTER_BOUND('',#81,.T.);
#66=FACE_OUTER_BOUND('',#83,.T.);
#67=FACE_OUTER_BOUND('',#84,.T.);
#68=FACE_OUTER_BOUND('',#85,.T.);
#69=FACE_OUTER_BOUND('',#86,.T.);
#70=EDGE_LOOP('',(#181,#182));
#71=EDGE_LOOP('',(#183,#184));
#72=EDGE_LOOP('',(#185,#186,#187,#188,#189,#190));
#73=EDGE_LOOP('',(#191,#192,#193,#194,#195,#196));
#74=EDGE_LOOP('',(#197,#198));
#75=EDGE_LOOP('',(#199,#200));
#76=EDGE_LOOP('',(#201,#202,#203,#204,#205,#206));
#77=EDGE_LOOP('',(#207,#208));
#78=EDGE_LOOP('',(#209,#210));
#79=EDGE_LOOP('',(#211,#212,#213,#214,#215,#216));
#80=EDGE_LOOP('',(#217,#218,#219,#220,#221,#222));
#81=EDGE_LOOP('',(#223,#224));
#82=EDGE_LOOP('',(#225,#226));
#83=EDGE_LOOP('',(#227,#228,#229,#230,#231,#232));
#84=EDGE_LOOP('',(#233,#234,#235,#236,#237,#238,#239));
#85=EDGE_LOOP('',(#240,#241,#242,#243,#244,#245,#246,#247));
#86=EDGE_LOOP('',(#248,#249,#250,#251,#252,#253,#254));
#87=CIRCLE('',#295,0.00572248855500009);
#88=CIRCLE('',#296,0.00572248855500009);
#89=CIRCLE('',#298,0.0379999239999999);
#90=CIRCLE('',#299,0.0379999239999999);
#91=CIRCLE('',#301,0.00572248855500009);
#92=CIRCLE('',#302,0.00572248855500009);
#93=CIRCLE('',#304,0.0065784868430001);
#94=CIRCLE('',#305,0.0065784868430001);
#95=CIRCLE('',#307,0.00874998250000001);
#96=CIRCLE('',#308,0.00874998250000001);
#97=CIRCLE('',#310,0.0087499824999999);
#98=CIRCLE('',#311,0.0087499824999999);
#99=CIRCLE('',#313,0.018999962);
#100=CIRCLE('',#314,0.018999962);
#101=CIRCLE('',#316,0.01999996);
#102=CIRCLE('',#317,0.01999996);
#103=CIRCLE('',#319,0.01999996);
#104=CIRCLE('',#320,0.01999996);
#105=CIRCLE('',#322,0.027499945);
#106=CIRCLE('',#323,0.027499945);
#107=CIRCLE('',#325,0.0284999429999999);
#108=CIRCLE('',#326,0.0284999429999999);
#109=CIRCLE('',#328,0.0284999429999999);
#110=CIRCLE('',#329,0.0284999429999999);
#111=CIRCLE('',#330,0.0284999429999999);
#112=CIRCLE('',#332,0.02999994);
#113=CIRCLE('',#333,0.02999994);
#114=CIRCLE('',#334,0.02999994);
#115=CIRCLE('',#335,0.001499997);
#116=VERTEX_POINT('',#435);
#117=VERTEX_POINT('',#436);
#118=VERTEX_POINT('',#440);
#119=VERTEX_POINT('',#441);
#120=VERTEX_POINT('',#445);
#121=VERTEX_POINT('',#446);
#122=VERTEX_POINT('',#451);
#123=VERTEX_POINT('',#453);
#124=VERTEX_POINT('',#457);
#125=VERTEX_POINT('',#458);
#126=VERTEX_POINT('',#462);
#127=VERTEX_POINT('',#463);
#128=VERTEX_POINT('',#468);
#129=VERTEX_POINT('',#469);
#130=VERTEX_POINT('',#473);
#131=VERTEX_POINT('',#474);
#132=VERTEX_POINT('',#479);
#133=VERTEX_POINT('',#480);
#134=VERTEX_POINT('',#485);
#135=VERTEX_POINT('',#486);
#136=VERTEX_POINT('',#490);
#137=VERTEX_POINT('',#491);
#138=VERTEX_POINT('',#496);
#139=VERTEX_POINT('',#497);
#140=VERTEX_POINT('',#499);
#141=VERTEX_POINT('',#504);
#142=VERTEX_POINT('',#505);
#143=VERTEX_POINT('',#507);
#144=EDGE_CURVE('',#116,#117,#87,.T.);
#145=EDGE_CURVE('',#117,#116,#88,.T.);
#146=EDGE_CURVE('',#118,#119,#89,.T.);
#147=EDGE_CURVE('',#119,#118,#90,.T.);
#148=EDGE_CURVE('',#120,#121,#91,.T.);
#149=EDGE_CURVE('',#121,#120,#92,.T.);
#150=EDGE_CURVE('',#121,#117,#22,.T.);
#151=EDGE_CURVE('',#121,#122,#23,.T.);
#152=EDGE_CURVE('',#123,#122,#93,.T.);
#153=EDGE_CURVE('',#122,#123,#94,.T.);
#154=EDGE_CURVE('',#124,#125,#95,.T.);
#155=EDGE_CURVE('',#125,#124,#96,.T.);
#156=EDGE_CURVE('',#126,#127,#97,.T.);
#157=EDGE_CURVE('',#127,#126,#98,.T.);
#158=EDGE_CURVE('',#127,#125,#24,.T.);
#159=EDGE_CURVE('',#128,#129,#99,.T.);
#160=EDGE_CURVE('',#129,#128,#100,.T.);
#161=EDGE_CURVE('',#130,#131,#101,.T.);
#162=EDGE_CURVE('',#131,#130,#102,.T.);
#163=EDGE_CURVE('',#131,#129,#25,.T.);
#164=EDGE_CURVE('',#132,#133,#103,.T.);
#165=EDGE_CURVE('',#133,#132,#104,.T.);
#166=EDGE_CURVE('',#133,#131,#26,.T.);
#167=EDGE_CURVE('',#134,#135,#105,.T.);
#168=EDGE_CURVE('',#135,#134,#106,.T.);
#169=EDGE_CURVE('',#136,#137,#107,.T.);
#170=EDGE_CURVE('',#137,#136,#108,.T.);
#171=EDGE_CURVE('',#137,#135,#27,.T.);
#172=EDGE_CURVE('',#138,#139,#109,.T.);
#173=EDGE_CURVE('',#140,#138,#110,.T.);
#174=EDGE_CURVE('',#140,#137,#28,.T.);
#175=EDGE_CURVE('',#139,#140,#111,.T.);
#176=EDGE_CURVE('',#141,#142,#112,.T.);
#177=EDGE_CURVE('',#143,#141,#113,.T.);
#178=EDGE_CURVE('',#142,#143,#114,.T.);
#179=EDGE_CURVE('',#142,#139,#115,.T.);
#180=EDGE_CURVE('',#119,#143,#29,.T.);
#181=ORIENTED_EDGE('',*,*,#144,.F.);
#182=ORIENTED_EDGE('',*,*,#145,.F.);
#183=ORIENTED_EDGE('',*,*,#146,.T.);
#184=ORIENTED_EDGE('',*,*,#147,.T.);
#185=ORIENTED_EDGE('',*,*,#148,.F.);
#186=ORIENTED_EDGE('',*,*,#149,.F.);
#187=ORIENTED_EDGE('',*,*,#150,.T.);
#188=ORIENTED_EDGE('',*,*,#145,.T.);
#189=ORIENTED_EDGE('',*,*,#144,.T.);
#190=ORIENTED_EDGE('',*,*,#150,.F.);
#191=ORIENTED_EDGE('',*,*,#148,.T.);
#192=ORIENTED_EDGE('',*,*,#151,.T.);
#193=ORIENTED_EDGE('',*,*,#152,.F.);
#194=ORIENTED_EDGE('',*,*,#153,.F.);
#195=ORIENTED_EDGE('',*,*,#151,.F.);
#196=ORIENTED_EDGE('',*,*,#149,.T.);
#197=ORIENTED_EDGE('',*,*,#154,.F.);
#198=ORIENTED_EDGE('',*,*,#155,.F.);
#199=ORIENTED_EDGE('',*,*,#152,.T.);
#200=ORIENTED_EDGE('',*,*,#153,.T.);
#201=ORIENTED_EDGE('',*,*,#156,.F.);
#202=ORIENTED_EDGE('',*,*,#157,.F.);
#203=ORIENTED_EDGE('',*,*,#158,.T.);
#204=ORIENTED_EDGE('',*,*,#155,.T.);
#205=ORIENTED_EDGE('',*,*,#154,.T.);
#206=ORIENTED_EDGE('',*,*,#158,.F.);
#207=ORIENTED_EDGE('',*,*,#159,.F.);
#208=ORIENTED_EDGE('',*,*,#160,.F.);
#209=ORIENTED_EDGE('',*,*,#156,.T.);
#210=ORIENTED_EDGE('',*,*,#157,.T.);
#211=ORIENTED_EDGE('',*,*,#161,.F.);
#212=ORIENTED_EDGE('',*,*,#162,.F.);
#213=ORIENTED_EDGE('',*,*,#163,.T.);
#214=ORIENTED_EDGE('',*,*,#160,.T.);
#215=ORIENTED_EDGE('',*,*,#159,.T.);
#216=ORIENTED_EDGE('',*,*,#163,.F.);
#217=ORIENTED_EDGE('',*,*,#164,.F.);
#218=ORIENTED_EDGE('',*,*,#165,.F.);
#219=ORIENTED_EDGE('',*,*,#166,.T.);
#220=ORIENTED_EDGE('',*,*,#162,.T.);
#221=ORIENTED_EDGE('',*,*,#161,.T.);
#222=ORIENTED_EDGE('',*,*,#166,.F.);
#223=ORIENTED_EDGE('',*,*,#167,.F.);
#224=ORIENTED_EDGE('',*,*,#168,.F.);
#225=ORIENTED_EDGE('',*,*,#164,.T.);
#226=ORIENTED_EDGE('',*,*,#165,.T.);
#227=ORIENTED_EDGE('',*,*,#169,.F.);
#228=ORIENTED_EDGE('',*,*,#170,.F.);
#229=ORIENTED_EDGE('',*,*,#171,.T.);
#230=ORIENTED_EDGE('',*,*,#168,.T.);
#231=ORIENTED_EDGE('',*,*,#167,.T.);
#232=ORIENTED_EDGE('',*,*,#171,.F.);
#233=ORIENTED_EDGE('',*,*,#172,.F.);
#234=ORIENTED_EDGE('',*,*,#173,.F.);
#235=ORIENTED_EDGE('',*,*,#174,.T.);
#236=ORIENTED_EDGE('',*,*,#170,.T.);
#237=ORIENTED_EDGE('',*,*,#169,.T.);
#238=ORIENTED_EDGE('',*,*,#174,.F.);
#239=ORIENTED_EDGE('',*,*,#175,.F.);
#240=ORIENTED_EDGE('',*,*,#176,.F.);
#241=ORIENTED_EDGE('',*,*,#177,.F.);
#242=ORIENTED_EDGE('',*,*,#178,.F.);
#243=ORIENTED_EDGE('',*,*,#179,.T.);
#244=ORIENTED_EDGE('',*,*,#175,.T.);
#245=ORIENTED_EDGE('',*,*,#173,.T.);
#246=ORIENTED_EDGE('',*,*,#172,.T.);
#247=ORIENTED_EDGE('',*,*,#179,.F.);
#248=ORIENTED_EDGE('',*,*,#146,.F.);
#249=ORIENTED_EDGE('',*,*,#147,.F.);
#250=ORIENTED_EDGE('',*,*,#180,.T.);
#251=ORIENTED_EDGE('',*,*,#177,.T.);
#252=ORIENTED_EDGE('',*,*,#176,.T.);
#253=ORIENTED_EDGE('',*,*,#178,.T.);
#254=ORIENTED_EDGE('',*,*,#180,.F.);
#255=PLANE('',#294);
#256=PLANE('',#297);
#257=PLANE('',#306);
#258=PLANE('',#312);
#259=PLANE('',#321);
#260=ADVANCED_FACE('',(#56),#255,.F.);
#261=ADVANCED_FACE('',(#57),#256,.T.);
#262=ADVANCED_FACE('',(#58),#38,.F.);
#263=ADVANCED_FACE('',(#59),#18,.F.);
#264=ADVANCED_FACE('',(#60,#15),#257,.T.);
#265=ADVANCED_FACE('',(#61),#39,.F.);
#266=ADVANCED_FACE('',(#62,#16),#258,.T.);
#267=ADVANCED_FACE('',(#63),#19,.T.);
#268=ADVANCED_FACE('',(#64),#40,.T.);
#269=ADVANCED_FACE('',(#65,#17),#259,.T.);
#270=ADVANCED_FACE('',(#66),#20,.T.);
#271=ADVANCED_FACE('',(#67),#41,.T.);
#272=ADVANCED_FACE('',(#68),#14,.F.);
#273=ADVANCED_FACE('',(#69),#21,.T.);
#274=CLOSED_SHELL('',(#260,#261,#262,#263,#264,#265,#266,#267,#268,#269,
#270,#271,#272,#273));
#275=DERIVED_UNIT_ELEMENT(#277,1.);
#276=DERIVED_UNIT_ELEMENT(#518,3.);
#277=(
MASS_UNIT()
NAMED_UNIT(*)
SI_UNIT($,.GRAM.)
);
#278=DERIVED_UNIT((#275,#276));
#279=MEASURE_REPRESENTATION_ITEM('density measure',
POSITIVE_RATIO_MEASURE(1.),#278);
#280=PROPERTY_DEFINITION_REPRESENTATION(#285,#282);
#281=PROPERTY_DEFINITION_REPRESENTATION(#286,#283);
#282=REPRESENTATION('material name',(#284),#515);
#283=REPRESENTATION('density',(#279),#515);
#284=DESCRIPTIVE_REPRESENTATION_ITEM('Gen\X\E9rico','Gen\X\E9rico');
#285=PROPERTY_DEFINITION('material property','material name',#525);
#286=PROPERTY_DEFINITION('material property','density of part',#525);
#287=DATE_TIME_ROLE('creation_date');
#288=APPLIED_DATE_AND_TIME_ASSIGNMENT(#289,#287,(#525));
#289=DATE_AND_TIME(#290,#291);
#290=CALENDAR_DATE(2021,5,1);
#291=LOCAL_TIME(13,19,8.,#292);
#292=COORDINATED_UNIVERSAL_TIME_OFFSET(0,0,.BEHIND.);
#293=AXIS2_PLACEMENT_3D('placement',#433,#337,#338);
#294=AXIS2_PLACEMENT_3D('',#434,#339,#340);
#295=AXIS2_PLACEMENT_3D('',#437,#341,#342);
#296=AXIS2_PLACEMENT_3D('',#438,#343,#344);
#297=AXIS2_PLACEMENT_3D('',#439,#345,#346);
#298=AXIS2_PLACEMENT_3D('',#442,#347,#348);
#299=AXIS2_PLACEMENT_3D('',#443,#349,#350);
#300=AXIS2_PLACEMENT_3D('',#444,#351,#352);
#301=AXIS2_PLACEMENT_3D('',#447,#353,#354);
#302=AXIS2_PLACEMENT_3D('',#448,#355,#356);
#303=AXIS2_PLACEMENT_3D('',#450,#358,#359);
#304=AXIS2_PLACEMENT_3D('',#454,#361,#362);
#305=AXIS2_PLACEMENT_3D('',#455,#363,#364);
#306=AXIS2_PLACEMENT_3D('',#456,#365,#366);
#307=AXIS2_PLACEMENT_3D('',#459,#367,#368);
#308=AXIS2_PLACEMENT_3D('',#460,#369,#370);
#309=AXIS2_PLACEMENT_3D('',#461,#371,#372);
#310=AXIS2_PLACEMENT_3D('',#464,#373,#374);
#311=AXIS2_PLACEMENT_3D('',#465,#375,#376);
#312=AXIS2_PLACEMENT_3D('',#467,#378,#379);
#313=AXIS2_PLACEMENT_3D('',#470,#380,#381);
#314=AXIS2_PLACEMENT_3D('',#471,#382,#383);
#315=AXIS2_PLACEMENT_3D('',#472,#384,#385);
#316=AXIS2_PLACEMENT_3D('',#475,#386,#387);
#317=AXIS2_PLACEMENT_3D('',#476,#388,#389);
#318=AXIS2_PLACEMENT_3D('',#478,#391,#392);
#319=AXIS2_PLACEMENT_3D('',#481,#393,#394);
#320=AXIS2_PLACEMENT_3D('',#482,#395,#396);
#321=AXIS2_PLACEMENT_3D('',#484,#398,#399);
#322=AXIS2_PLACEMENT_3D('',#487,#400,#401);
#323=AXIS2_PLACEMENT_3D('',#488,#402,#403);
#324=AXIS2_PLACEMENT_3D('',#489,#404,#405);
#325=AXIS2_PLACEMENT_3D('',#492,#406,#407);
#326=AXIS2_PLACEMENT_3D('',#493,#408,#409);
#327=AXIS2_PLACEMENT_3D('',#495,#411,#412);
#328=AXIS2_PLACEMENT_3D('',#498,#413,#414);
#329=AXIS2_PLACEMENT_3D('',#500,#415,#416);
#330=AXIS2_PLACEMENT_3D('',#502,#418,#419);
#331=AXIS2_PLACEMENT_3D('',#503,#420,#421);
#332=AXIS2_PLACEMENT_3D('',#506,#422,#423);
#333=AXIS2_PLACEMENT_3D('',#508,#424,#425);
#334=AXIS2_PLACEMENT_3D('',#509,#426,#427);
#335=AXIS2_PLACEMENT_3D('',#510,#428,#429);
#336=AXIS2_PLACEMENT_3D('',#511,#430,#431);
#337=DIRECTION('axis',(0.,0.,1.));
#338=DIRECTION('refdir',(1.,0.,0.));
#339=DIRECTION('center_axis',(0.,-1.,0.));
#340=DIRECTION('ref_axis',(0.,0.,-1.));
#341=DIRECTION('center_axis',(0.,-1.,0.));
#342=DIRECTION('ref_axis',(1.,0.,0.));
#343=DIRECTION('center_axis',(0.,-1.,0.));
#344=DIRECTION('ref_axis',(1.,0.,0.));
#345=DIRECTION('center_axis',(0.,-1.,0.));
#346=DIRECTION('ref_axis',(0.,0.,-1.));
#347=DIRECTION('center_axis',(0.,-1.,0.));
#348=DIRECTION('ref_axis',(1.,0.,0.));
#349=DIRECTION('center_axis',(0.,-1.,0.));
#350=DIRECTION('ref_axis',(1.,0.,0.));
#351=DIRECTION('center_axis',(0.,-1.,0.));
#352=DIRECTION('ref_axis',(1.,0.,0.));
#353=DIRECTION('center_axis',(0.,-1.,0.));
#354=DIRECTION('ref_axis',(1.,0.,0.));
#355=DIRECTION('center_axis',(0.,-1.,0.));
#356=DIRECTION('ref_axis',(1.,0.,0.));
#357=DIRECTION('',(0.,-1.,0.));
#358=DIRECTION('center_axis',(0.,1.,0.));
#359=DIRECTION('ref_axis',(1.,0.,0.));
#360=DIRECTION('',(-0.707106781186614,0.707106781186481,8.65956056235574E-17));
#361=DIRECTION('center_axis',(0.,-1.,0.));
#362=DIRECTION('ref_axis',(1.,0.,0.));
#363=DIRECTION('center_axis',(0.,-1.,0.));
#364=DIRECTION('ref_axis',(1.,0.,0.));
#365=DIRECTION('center_axis',(0.,1.,0.));
#366=DIRECTION('ref_axis',(0.,0.,1.));
#367=DIRECTION('center_axis',(0.,-1.,0.));
#368=DIRECTION('ref_axis',(1.,0.,0.));
#369=DIRECTION('center_axis',(0.,-1.,0.));
#370=DIRECTION('ref_axis',(1.,0.,0.));
#371=DIRECTION('center_axis',(0.,-1.,0.));
#372=DIRECTION('ref_axis',(1.,0.,0.));
#373=DIRECTION('center_axis',(0.,-1.,0.));
#374=DIRECTION('ref_axis',(1.,0.,0.));
#375=DIRECTION('center_axis',(0.,-1.,0.));
#376=DIRECTION('ref_axis',(1.,0.,0.));
#377=DIRECTION('',(0.,-1.,0.));
#378=DIRECTION('center_axis',(0.,1.,0.));
#379=DIRECTION('ref_axis',(0.,0.,1.));
#380=DIRECTION('center_axis',(0.,-1.,0.));
#381=DIRECTION('ref_axis',(1.,0.,0.));
#382=DIRECTION('center_axis',(0.,-1.,0.));
#383=DIRECTION('ref_axis',(1.,0.,0.));
#384=DIRECTION('center_axis',(0.,-1.,0.));
#385=DIRECTION('ref_axis',(1.,0.,0.));
#386=DIRECTION('center_axis',(0.,-1.,0.));
#387=DIRECTION('ref_axis',(1.,0.,0.));
#388=DIRECTION('center_axis',(0.,-1.,0.));
#389=DIRECTION('ref_axis',(1.,0.,0.));
#390=DIRECTION('',(0.707106781186547,0.707106781186548,8.65956056235493E-17));
#391=DIRECTION('center_axis',(0.,-1.,0.));
#392=DIRECTION('ref_axis',(1.,0.,0.));
#393=DIRECTION('center_axis',(0.,-1.,0.));
#394=DIRECTION('ref_axis',(1.,0.,0.));
#395=DIRECTION('center_axis',(0.,-1.,0.));
#396=DIRECTION('ref_axis',(1.,0.,0.));
#397=DIRECTION('',(0.,1.,0.));
#398=DIRECTION('center_axis',(0.,1.,0.));
#399=DIRECTION('ref_axis',(0.,0.,1.));
#400=DIRECTION('center_axis',(0.,-1.,0.));
#401=DIRECTION('ref_axis',(1.,0.,0.));
#402=DIRECTION('center_axis',(0.,-1.,0.));
#403=DIRECTION('ref_axis',(1.,0.,0.));
#404=DIRECTION('center_axis',(0.,-1.,0.));
#405=DIRECTION('ref_axis',(1.,0.,0.));
#406=DIRECTION('center_axis',(0.,-1.,0.));
#407=DIRECTION('ref_axis',(1.,0.,0.));
#408=DIRECTION('center_axis',(0.,-1.,0.));
#409=DIRECTION('ref_axis',(1.,0.,0.));
#410=DIRECTION('',(0.707106781186523,0.707106781186572,8.65956056235463E-17));
#411=DIRECTION('center_axis',(0.,-1.,0.));
#412=DIRECTION('ref_axis',(1.,0.,0.));
#413=DIRECTION('center_axis',(0.,-1.,0.));
#414=DIRECTION('ref_axis',(1.,0.,0.));
#415=DIRECTION('center_axis',(0.,-1.,0.));
#416=DIRECTION('ref_axis',(1.,0.,0.));
#417=DIRECTION('',(0.,1.,0.));
#418=DIRECTION('center_axis',(0.,-1.,0.));
#419=DIRECTION('ref_axis',(1.,0.,0.));
#420=DIRECTION('center_axis',(0.,-1.,0.));
#421=DIRECTION('ref_axis',(0.,0.,-1.));
#422=DIRECTION('center_axis',(0.,-1.,0.));
#423=DIRECTION('ref_axis',(1.,0.,0.));
#424=DIRECTION('center_axis',(0.,-1.,0.));
#425=DIRECTION('ref_axis',(1.,0.,0.));
#426=DIRECTION('center_axis',(0.,-1.,0.));
#427=DIRECTION('ref_axis',(1.,0.,0.));
#428=DIRECTION('center_axis',(1.,0.,1.22464679914735E-16));
#429=DIRECTION('ref_axis',(-1.22464679914735E-16,0.,1.));
#430=DIRECTION('center_axis',(0.,-1.,0.));
#431=DIRECTION('ref_axis',(1.,0.,0.));
#432=DIRECTION('',(0.720486853359739,0.693468596358755,8.82341918794753E-17));
#433=CARTESIAN_POINT('',(0.,0.,0.));
#434=CARTESIAN_POINT('Origin',(0.,0.0151999696,0.));
#435=CARTESIAN_POINT('',(0.00572248855500009,0.0151999695999999,0.));
#436=CARTESIAN_POINT('',(-0.00572248855500009,0.0151999695999999,-7.00802729203822E-19));
#437=CARTESIAN_POINT('Origin',(0.,0.0151999695999999,0.));
#438=CARTESIAN_POINT('Origin',(0.,0.0151999695999999,0.));
#439=CARTESIAN_POINT('Origin',(0.,-3.94430452610506E-33,0.));
#440=CARTESIAN_POINT('',(0.0379999239999999,-2.79740675068752E-17,0.));
#441=CARTESIAN_POINT('',(-0.0379999239999999,4.44089209850063E-18,-4.65364852944426E-18));
#442=CARTESIAN_POINT('Origin',(0.,-2.77555756156289E-17,0.));
#443=CARTESIAN_POINT('Origin',(0.,-2.77555756156289E-17,0.));
#444=CARTESIAN_POINT('Origin',(0.,0.020271959456,0.));
#445=CARTESIAN_POINT('',(0.00572248855500009,0.025343949312,0.));
#446=CARTESIAN_POINT('',(-0.00572248855500009,0.025343949312,-7.00802729203822E-19));
#447=CARTESIAN_POINT('Origin',(0.,0.025343949312,0.));
#448=CARTESIAN_POINT('Origin',(0.,0.025343949312,0.));
#449=CARTESIAN_POINT('',(-0.00572248855500009,0.020271959456,-7.00802729203822E-19));
#450=CARTESIAN_POINT('Origin',(0.,0.025771948456,0.));
#451=CARTESIAN_POINT('',(-0.00657848684300009,0.0261999475999999,8.05632285551303E-19));
#452=CARTESIAN_POINT('',(-0.00615048769900009,0.025771948456,7.53217507377563E-19));
#453=CARTESIAN_POINT('',(0.0065784868430001,0.0261999475999999,0.));
#454=CARTESIAN_POINT('Origin',(0.,0.0261999475999999,0.));
#455=CARTESIAN_POINT('Origin',(0.,0.0261999475999999,0.));
#456=CARTESIAN_POINT('Origin',(0.00874998250000001,0.0261999476,0.));
#457=CARTESIAN_POINT('',(0.00874998250000001,0.0261999476,0.));
#458=CARTESIAN_POINT('',(-0.00874998249999996,0.0261999476,-1.07156380612203E-18));
#459=CARTESIAN_POINT('Origin',(0.,0.0261999476,0.));
#460=CARTESIAN_POINT('Origin',(0.,0.0261999476,0.));
#461=CARTESIAN_POINT('Origin',(0.,0.0264499470999999,0.));
#462=CARTESIAN_POINT('',(0.0087499824999999,0.0266999465999999,0.));
#463=CARTESIAN_POINT('',(-0.00874998249999996,0.0266999465999999,-1.07156380612203E-18));
#464=CARTESIAN_POINT('Origin',(0.,0.0266999465999999,0.));
#465=CARTESIAN_POINT('Origin',(0.,0.0266999465999999,0.));
#466=CARTESIAN_POINT('',(-0.00874998249999996,0.0264499470999999,-1.07156380612203E-18));
#467=CARTESIAN_POINT('Origin',(0.018999962,0.0266999465999999,0.));
#468=CARTESIAN_POINT('',(0.018999962,0.0266999465999999,0.));
#469=CARTESIAN_POINT('',(-0.018999962,0.0266999465999999,-2.32682426472213E-18));
#470=CARTESIAN_POINT('Origin',(0.,0.0266999465999999,0.));
#471=CARTESIAN_POINT('Origin',(0.,0.0266999465999999,0.));
#472=CARTESIAN_POINT('Origin',(0.,0.0261999475999999,0.));
#473=CARTESIAN_POINT('',(0.01999996,0.0256999485999999,0.));
#474=CARTESIAN_POINT('',(-0.01999996,0.0256999485999999,-2.44928869970751E-18));
#475=CARTESIAN_POINT('Origin',(0.,0.0256999485999999,0.));
#476=CARTESIAN_POINT('Origin',(0.,0.0256999485999999,0.));
#477=CARTESIAN_POINT('',(-0.019499961,0.0261999475999999,-2.38805648221482E-18));
#478=CARTESIAN_POINT('Origin',(0.,0.0219499560999999,0.));
#479=CARTESIAN_POINT('',(0.01999996,0.0181999635999999,0.));
#480=CARTESIAN_POINT('',(-0.01999996,0.0181999635999999,-2.44928869970751E-18));
#481=CARTESIAN_POINT('Origin',(0.,0.0181999635999999,0.));
#482=CARTESIAN_POINT('Origin',(0.,0.0181999635999999,0.));
#483=CARTESIAN_POINT('',(-0.01999996,0.0219499560999999,-2.44928869970751E-18));
#484=CARTESIAN_POINT('Origin',(0.027499945,0.0181999635999999,0.));
#485=CARTESIAN_POINT('',(0.027499945,0.0181999635999999,0.));
#486=CARTESIAN_POINT('',(-0.027499945,0.0181999635999999,-3.36777196209783E-18));
#487=CARTESIAN_POINT('Origin',(0.,0.0181999635999999,0.));
#488=CARTESIAN_POINT('Origin',(0.,0.0181999635999999,0.));
#489=CARTESIAN_POINT('Origin',(0.,0.0176999645999999,0.));
#490=CARTESIAN_POINT('',(0.0284999429999999,0.0171999655999999,0.));
#491=CARTESIAN_POINT('',(-0.0284999429999999,0.0171999655999999,-3.49023639708319E-18));
#492=CARTESIAN_POINT('Origin',(0.,0.0171999655999999,0.));
#493=CARTESIAN_POINT('Origin',(0.,0.0171999655999999,0.));
#494=CARTESIAN_POINT('',(-0.027999944,0.0176999645999999,-3.42900417959051E-18));
#495=CARTESIAN_POINT('Origin',(0.,0.0131999735999999,0.));
#496=CARTESIAN_POINT('',(0.0284999429999999,0.00919998159999995,0.));
#497=CARTESIAN_POINT('',(-3.49023639708319E-18,0.00919998159999995,0.0284999429999999));
#498=CARTESIAN_POINT('Origin',(0.,0.00919998159999995,0.));
#499=CARTESIAN_POINT('',(-0.0284999429999999,0.00919998159999995,-3.49023639708319E-18));
#500=CARTESIAN_POINT('Origin',(0.,0.00919998159999995,0.));
#501=CARTESIAN_POINT('',(-0.0284999429999999,0.0131999735999999,-3.49023639708319E-18));
#502=CARTESIAN_POINT('Origin',(0.,0.00919998159999995,0.));
#503=CARTESIAN_POINT('Origin',(0.,0.00919998159999995,0.));
#504=CARTESIAN_POINT('',(0.02999994,0.00769998459999996,0.));
#505=CARTESIAN_POINT('',(-3.67393304956127E-18,0.00769998459999996,0.02999994));
#506=CARTESIAN_POINT('Origin',(0.,0.00769998459999996,0.));
#507=CARTESIAN_POINT('',(-0.02999994,0.00769998459999999,-3.67393304956127E-18));
#508=CARTESIAN_POINT('Origin',(0.,0.00769998459999996,0.));
#509=CARTESIAN_POINT('Origin',(0.,0.00769998459999996,0.));
#510=CARTESIAN_POINT('Origin',(-3.67393304956127E-18,0.00919998159999995,
0.02999994));
#511=CARTESIAN_POINT('Origin',(0.,0.00384999229999997,0.));
#512=CARTESIAN_POINT('',(-0.033999932,0.00384999229999997,-4.16379078950277E-18));
#513=UNCERTAINTY_MEASURE_WITH_UNIT(LENGTH_MEASURE(1.E-5),#517,
'DISTANCE_ACCURACY_VALUE',
'Maximum model space distance between geometric entities at asserted c
onnectivities');
#514=UNCERTAINTY_MEASURE_WITH_UNIT(LENGTH_MEASURE(1.E-5),#517,
'DISTANCE_ACCURACY_VALUE',
'Maximum model space distance between geometric entities at asserted c
onnectivities');
#515=(
GEOMETRIC_REPRESENTATION_CONTEXT(3)
GLOBAL_UNCERTAINTY_ASSIGNED_CONTEXT((#513))
GLOBAL_UNIT_ASSIGNED_CONTEXT((#517,#519,#520))
REPRESENTATION_CONTEXT('','3D')
);
#516=(
GEOMETRIC_REPRESENTATION_CONTEXT(3)
GLOBAL_UNCERTAINTY_ASSIGNED_CONTEXT((#514))
GLOBAL_UNIT_ASSIGNED_CONTEXT((#517,#519,#520))
REPRESENTATION_CONTEXT('','3D')
);
#517=(
LENGTH_UNIT()
NAMED_UNIT(*)
SI_UNIT($,.METRE.)
);
#518=(
LENGTH_UNIT()
NAMED_UNIT(*)
SI_UNIT(.CENTI.,.METRE.)
);
#519=(
NAMED_UNIT(*)
PLANE_ANGLE_UNIT()
SI_UNIT($,.RADIAN.)
);
#520=(
NAMED_UNIT(*)
SI_UNIT($,.STERADIAN.)
SOLID_ANGLE_UNIT()
);
#521=SHAPE_DEFINITION_REPRESENTATION(#522,#523);
#522=PRODUCT_DEFINITION_SHAPE('',$,#525);
#523=SHAPE_REPRESENTATION('',(#293),#515);
#524=PRODUCT_DEFINITION_CONTEXT('part definition',#529,'design');
#525=PRODUCT_DEFINITION('Pieza1','Pieza1',#526,#524);
#526=PRODUCT_DEFINITION_FORMATION('',$,#531);
#527=PRODUCT_RELATED_PRODUCT_CATEGORY('Pieza1','Pieza1',(#531));
#528=APPLICATION_PROTOCOL_DEFINITION('international standard',
'automotive_design',2009,#529);
#529=APPLICATION_CONTEXT(
'Core Data for Automotive Mechanical Design Process');
#530=PRODUCT_CONTEXT('part definition',#529,'mechanical');
#531=PRODUCT('Pieza1','Pieza1',$,(#530));
#532=PRESENTATION_STYLE_ASSIGNMENT((#535));
#533=PRESENTATION_STYLE_ASSIGNMENT((#536));
#534=PRESENTATION_STYLE_ASSIGNMENT((#537));
#535=SURFACE_STYLE_USAGE(.BOTH.,#544);
#536=SURFACE_STYLE_USAGE(.BOTH.,#545);
#537=SURFACE_STYLE_USAGE(.BOTH.,#546);
#538=SURFACE_STYLE_RENDERING_WITH_PROPERTIES($,#556,(#541));
#539=SURFACE_STYLE_RENDERING_WITH_PROPERTIES($,#557,(#542));
#540=SURFACE_STYLE_RENDERING_WITH_PROPERTIES($,#558,(#543));
#541=SURFACE_STYLE_TRANSPARENT(0.);
#542=SURFACE_STYLE_TRANSPARENT(0.);
#543=SURFACE_STYLE_TRANSPARENT(0.);
#544=SURFACE_SIDE_STYLE('',(#547,#538));
#545=SURFACE_SIDE_STYLE('',(#548,#539));
#546=SURFACE_SIDE_STYLE('',(#549,#540));
#547=SURFACE_STYLE_FILL_AREA(#550);
#548=SURFACE_STYLE_FILL_AREA(#551);
#549=SURFACE_STYLE_FILL_AREA(#552);
#550=FILL_AREA_STYLE('',(#553));
#551=FILL_AREA_STYLE('',(#554));
#552=FILL_AREA_STYLE('',(#555));
#553=FILL_AREA_STYLE_COLOUR('',#556);
#554=FILL_AREA_STYLE_COLOUR('',#557);
#555=FILL_AREA_STYLE_COLOUR('',#558);
#556=COLOUR_RGB('',0.749019607843137,0.749019607843137,0.749019607843137);
#557=COLOUR_RGB('',0.32156862745098,0.32156862745098,0.32156862745098);
#558=COLOUR_RGB('',0.745098039215686,0.737254901960784,0.729411764705882);
ENDSEC;
END-ISO-10303-21;
